Song name
# A B C D E F G H I J K L M N O P Q R S T U V W X Y Z

Staind - A Walk To Remember tab

Staind - A Walk To Remember(rare)
Tabbed By: Debo
EMail: thisgoodfight@yahoo.com

------------------------------------
------------------------------------
---------6-------5------------------
-5-5--------------------------------
-5-3---------5-----4----------------
-3-3-----2--------------------------

i need a girl to represent to show how she cares

----------------------------------
------------------5----------------
----------------------------------
--3-3--7---------------2--------------
--3-3--7----14--------------3-----------
--1-1--5----12-----3--------------------

Repeat the whole thing 3times
Tap to rate this tab
# A B C D E F G H I J K L M N O P Q R S T U V W X Y Z