Song name
# A B C D E F G H I J K L M N O P Q R S T U V W X Y Z

Staind - Epiphany Acoustic tab

Song: Epiphany (Acoustic)
Artist: Staind
Album: Break the Cycle
Tabbed by: Kommon (faimilyval@aol.com)
Standard Tunning (EADGBe)


intro/verse
-10-10-10-10-10-10-10-10-10----------------------------------------|
-12-12----12-12-12-12-12-12----------------------------------------|
-12-12----12-12-12-12-12-12----------------------------------------|
-------------------------------------------------------------------|
-------------------------------------------------------------------|
-------------------------------------------------------------------|

Chorus
-6-6-6-6-6-6-6-6-6-------------------------------------------------|
-8-8---8-8-8-8-8-8-------------------------------------------------|
-8-8---8-8-8-8-8-8-------------------------------------------------|
-------------------------------------------------------------------|
-------------------------------------------------------------------|
-------------------------------------------------------------------|
this song is played on an acoustic 6-string guitar
Tap to rate this tab
# A B C D E F G H I J K L M N O P Q R S T U V W X Y Z