Song name
# A B C D E F G H I J K L M N O P Q R S T U V W X Y Z

Staind - Blasphemy tab

Help us improve GuitareTab! Take a short survey!
this is a song i heard on a bootleg

e|-------------------------------------|
b|-------------------------------------|
g|5-5-5---7-7----5-5-5---7-7-----------|
d|5-5-5---7-7----5-5-5---7-7-----------|
a|3-3-3---5-5----3-3-3---5-5-----------|
E|-------------------------------------|

repeat this twice
then do this

e|-------------------------------------|
b|2-2-2-------3-3-3-2-2-2-------3-3-3--|
g|2-2-2-------2-2-2-2-2-2-------2-2-2--|
d|2-2-2-2-2-2-0-0-0-2-2-2-2-2-2-0-0-0--|
a|0-0-0-2-2-2-0-0-0-0-0-0-2-2-2-0-0-0--|
E|------0-0-0-------------0-0-0--------|

the first riff is the verse
the second is the chorus

i post lyrics at a later date
I still need to figure them out
Related for Blasphemy tab