Guitaretab - guitar tabs
Song name
# A B C D E F G H I J K L M N O P Q R S T U V W X Y Z

Staind - How About You tab

Staind - How About You

Intro x2

e|----------------------------------------------------------------------------|
B|---------6-------------------------------------6---4--6---------------------|
G|-----7------------------7---7---9----------6------------------7---7---------|
D|---5---5-----5--------7---7--------7-----4---4--------------5---5-----5-----|
A|----------------------------------------------------------------------------|
E|----------------------------------------------------------------------------|

Verse x4

e|----------------------------------------------------------------------------|
B|----------------------------------------------------------------------------|
G|--0--0-0-0-0-0-0-0---2--2-2-2-2-2-2-2---6--6-6-6-6-6-6-6---0--0-0-0-0-0-0-0-|
D|--0--0-0-0-0-0-0-0---2--2-2-2-2-2-2-2---6--6-6-6-6-6-6-6---0--0-0-0-0-0-0-0-|
A|--0--0-0-0-0-0-0-0---2--2-2-2-2-2-2-2---4--4-4-4-4-4-4-4---0--0-0-0-0-0-0-0-|
E|----------------------------------------------------------------------------|

Pre Chorus
[ Tab from: http://www.guitaretab.com/s/staind/48667.html ]
e|-------------------------------------|
B|--------6---4--6---------------------|
G|----6------------------7---7---------|
D|--4---4--------------5---5-----5-----|
A|-------------------------------------|
E|-------------------------------------|

Chorus x4

e|-------------------------------------------------------|
B|-------------------------------------------------------|
G|---7------------2-----------6------------0-------------|
D|---7------------2-----------6------------0-------------|
A|---7------------2-----------4------------0-------------|
E|-------------------------------------------------------|

Intro 

Verse x4

Pre Chorus

Chorus x4

Bridge x3 

e|--------------------------------------------------------------------|
B|--------6-7--------------------------------------4------------------|
G|----7---------------7---9---7-6-----------6---7----7-6---------7----|
D|--5---5-----------7---7---------7-------4---4----------------5---5--|
A|--------------------------------------------------------------------|
E|--------------------------------------------------------------------|

Chorus x4
Related for How About You tab
Advertisement will be closed in 10 seconds