Song name
# A B C D E F G H I J K L M N O P Q R S T U V W X Y Z

Staind - See Thru tab

Band- Staind
Song- See Thru

Tuning: Ab Db Ab Db Gb Bb

Intro/chorus
|-----------------------------|
|-----------------------------|
|-----------------------------|
|-3/2-0-0-2-0-2-0-2-3-2-0-2-0-|
|-3/2-0-0-2-0-2-0-2-3-2-0-2-0-|
|-----------------------------|

|-----------------|
|-----------------|
|-[7]-[7]-[7]-[7]-|
|-----------------|
|-----------------|
|-----------------|
put these in there
([#]= artificial harmonic)

verse
|-----------------|
|-----------------|
|-----------------|
|-2-3-2-0-2-3-0-2-|
|-2-3-2-0-2-3-0-2-|
|-----------------|
once again put those harmonics on there

fill to chorus
|-------------|
|-------------|
|-------------|
|-0-3-0-3/5-0-|
|-0-3-0-3/5-0-|
|-------------|

Interlude
|--3--------------------------------------------| 
|--2----2p0-------------------------------------| 
|--0--------0---0---0-----0-3-------------------|
|--0--3-------3---3---2h3---2-3p0-0-3-5---------| 
|--0--------------------------3p0-0-3-5---------|
|-----------------------------------------------| 

Next riff
|--------------|  
|--------------|  
|--------------| 
|--3p0--0-3-5--| 
|--3p0--0-3-5--| 
|--------------|

Next one
|-----------|
|-----------|
|-----------|
|-5-x-5-x-x-|
|-5-x-5-x-x-|
|-----------|
Tap to rate this tab
 
# A B C D E F G H I J K L M N O P Q R S T U V W X Y Z