Guitaretab - guitar tabs
Song name
# A B C D E F G H I J K L M N O P Q R S T U V W X Y Z
Home / S / Staind / Reply tab

Staind - Reply tab

intro/chorus
e(-------------------------------------------------------------------)
b(-------------------------------------------------------------------)
g(--88888888666666668888888866666666----------------8888888866666666-)
d(--8888888866666666888888886666666644444444111111118888888866666666-)
a(--6666666644444444666666664444444444444444111111116666666644444444-)
D(----------------------------------4444444411111111-----------------)

verse
e(-------------------------------------------------------------------)
b(-------------------------------------------------------------------)
g(-------------------------------------------------------------------)
d(-------------------------------------------------------------------)
a(--66666666444444446666666644444444----------------6666666644444444-)
D(----------------------------------4444444411111111-----------------)
  pm................................................................

verse(lead)
e(--------2-----------1-----------2-----1h2-1-6---6---2---------)
b(----4-----4-----2-----2-----4-----4-----------7---7---4-6h7-6-)
g(--3---3-----3-1---1-----1-3---3-----3-------------------------)
d(--------------------------------------------------------------)
a(--------------------------------------------------------------)
D(--------------------------------------------------------------)
[ Tab from: http://www.guitaretab.com/s/staind/62082.html ]
verse(lead) continued
e(--------2-----1-2-----1-2-1-1-)
b(----4-----4-------4-----------)
g(--3---3-----3-------3---------)
d(------------------------------)
a(------------------------------)
D(------------------------------)

chorus(lead)
e(--------------------)
b(--7-7-7-77-66-7-6-7-)
g(--6-6-6-------------)
d(--------------------)
a(--------------------)
D(--------------------)
  pm. . .

solo
e(--10/13-------------------------------------11h13-11h13-11h14-11h13-)
b(-----------------------------------11-------------------------------)
g(--------------11-------------11-13----13-11-------------------------)
d(--------11-13----13-12h13-13----------------------------------------)
a(--------------------------------------------------------------------)
D(--------------------------------------------------------------------)

solo continued
e(--11h16-11h13-11h13-11h14-11h16-18-18/16-14/16-14/13-14-13-14-13-11-11-)
b(-----------------------------------------------------------------------)
g(-----------------------------------------------------------------------)
d(-----------------------------------------------------------------------)
a(-----------------------------------------------------------------------)
D(-----------------------------------------------------------------------)

solo continued
e(--------------------------------------------)
b(--------------------16/14-11/9/0------------)
g(--13/15-14h15-14-16-------------------------)
d(---------------------------------77-5-3-5-7-)
a(--------------------------------------------)
D(--------------------------------------------)
                                 pm.. . . . .
Related for Reply tab
×
Reply