Song name
# A B C D E F G H I J K L M N O P Q R S T U V W X Y Z

Staind - Excess Baggage Acoustic tab

verse (x8 for the intro)   (x4)            (x4)
                     eb(--------------)(--------------)
                     bb(--------------)(--------------)
                     gb(--------0-----)(--------0-----)
                     db(------4---4---)(------4---4---)
                     ab(----2-------2-)(----2-------2-)
                     Eb(--0-----------)(--3-----------)

verse(lead)  (x4)      (x4)
eb(--------------)(--------------)
bb(--------------)(--------------)
gb(--11-----8----)(---------8----)
db(-----8-----11-)(----8-11---11-)
ab(-------9------)(--9-----------)
Eb(--------------)(--------------)

chorus    (x2)         (x2)
eb(--------------)(--------------)
bb(--------0-----)(--------0-----)
gb(------2---2---)(------2---2---)
db(----2-------2-)(----2-------2-)
ab(--0-----------)(--3-----------)
Eb(--------------)(--------------)

chorus(lead is the same as the rythem guitar)
Tap to rate this tab
 
# A B C D E F G H I J K L M N O P Q R S T U V W X Y Z