Song name
# A B C D E F G H I J K L M N O P Q R S T U V W X Y Z

Staind - Something Like Me tab

-------------------------------------------------------------------------------
			 Something Like Me - Staind
-------------------------------------------------------------------------------
Transcribed by: Erik Dunnivan  
Email: papershavings@hotmail.com

Tuning: Acoustic tune down half step : Eb Ab Db Gb Bb Eb 

If you looked at this tab and want to play it, you should know the song, and can figure out the strumming!

eb|--3-3-3--3-3--3-3-----------------------------------------------------------|
Bb|--3-3-0--3-3--3-3-----------------------------------------------------------|
Gb|--0-0-0--0-0--0-0-----------------------------------------------------------|
Db|--0-0-0--2-2--2-2-----------------------------------------------------------|
Ab|--2-2-2--2-2--3-3-----------------------------------------------------------|
Eb|--3-3-3--0-0----------------------------------------------------------------|

Chorus: "And everytime you say you love me..."
eb|--3-3---3-3--3-3-----------------------------------------------------------|
Bb|--3-3---3-3--3-3-----------------------------------------------------------|
Gb|--0-0---0-0--0-0-----------------------------------------------------------|
Db|--0-0---2-2--2-2-----------------------------------------------------------|
Ab|--2-2---2-2--3-3-----------------------------------------------------------|
Eb|--3-3---0-0----------------------------------------------------------------|
Tap to rate this tab
# A B C D E F G H I J K L M N O P Q R S T U V W X Y Z