Song name
# A B C D E F G H I J K L M N O P Q R S T U V W X Y Z

Staind - Fill Me Up Acoustic tab

-------------------------------------------------------------------------------
			     Fill Me Up (Acoustic) - Staind
-------------------------------------------------------------------------------
Tabbed by: Erik Dunnivan
Email: papershavings@hotmail.com

This is Fill Me Up done acoustically by Aaron Lewis, listen to the
song/video of it for the strumming patterns, can be found on YouTube.

Tuning: Down half a step

eb|--3-3-------2-2-2----3-3---2-2--------|
Bb|--3-3-------3-3-3----3-3---3-3--------|
Gb|--0-0-------0p2-2----0-0---2-2--------|
Db|--2-2-------0-0-0----2-2---0-0--------| 
Ab|--2-2-------0-0-0----2-2---0-0--------|
Eb|--0-0----------------0-0--------------|
He switches around with the second chord, and sometimes near the end, 
he'll do the same with the first chord, like:

eb|--3-3----------------|
Bb|--3-3----------------|
Gb|--0-0----------------|
Db|--2-2----------------|
Ab|--0p2----------------|
Eb|--0-0----------------|

Chorus:
   You fill me up,  You're in my veins, A look could, Take my breath away...
eb|--3---------------3------------------2--------------3-----------|
Bb|--3---------------3------------------3--------------3-----------|
Gb|--0---------------0------------------2--------------0-----------|
Db|--2---------------2------------------0--------------2-----------|
Ab|--3---------------2------------------0--------------3-----------|
Eb|------------------0---------------------------------------------|

And all these things, You give away,   Sometimes I,   Take for granted
eb|--3-----------------3------------------2------------3-----------|
Bb|--3-----------------3------------------3------------3-----------|
Gb|--0-----------------0------------------2------------0-----------|
Db|--2-----------------2------------------0------------2-----------|
Ab|--3-----------------2------------------0------------3-----------|
Eb|--------------------0-------------------------------------------|


...and there you have it, just listen for the strumming, and if you have any questions, send me an e-mail.

| /  slide up
| \  slide down
| h  hammer-on
| p  pull-off
| ~  vibrato
| +  harmonic
| x  Mute note
===============================================================================
Tap to rate this tab
# A B C D E F G H I J K L M N O P Q R S T U V W X Y Z