Song name
# A B C D E F G H I J K L M N O P Q R S T U V W X Y Z

Stam1na - Kadonneet Kolme Sanaa tab

Stam1na is a great band :D

tuning - A D A D G B E

tabbed by - kasey

Both guitars [intro]


guitar one intro2

E|--------------------------------------------------------------------|
B|--------------------------------------------------------------------|
G|-------------------------------3------2-------------------5---------|
D|0--0-----0--0-----0--0-----0-2----0-2---0--0-----0--0-----3-----1---|
A|0--0-----0--0-----0--0------------------0--0-----0--0-----------1---|
D|0--0-----0--0-----0--0------------------0--0-----0--0-----------1---|
A|--------------------------------------------------------------------|

Guitar two intro2

E|---------------------------5-5-5--5-5-5-----------------------------|
B|--------------------------------------------------------------------|
G|--------------------------------------------------------------------|
D|0--0-----0--0-----0--0------------------0--0-----0--0-----5-----1---|
A|0--0-----0--0-----0--0------------------0--0-----0--0-----5-----1---|
D|0--0-----0--0-----0--0------------------0--0-----0--0-----5-----1---|
A|--------------------------------------------------------------------|

guitar one Verse

E|------------------------------------------------------------|
B|------------------------------------------------------------|
G|------------------------------------------------------------|
D|10-12-0---10-12-0---10-12-0---10-12-0---10-12-0---10-12-0---| tapping.
A|------------------------------------------------------------|
D|------------------------------------------------------------|
A|------------------------------------------------------------|

guitar two verse

E|--------------------------------------------------------------------|
B|--------11---------------10-----------------------------------------|
G|11--12-----------11--12-------------------12---------------11-------|
D|----------------------------------10--12-----------10--12-----------|
A|--------------------------------------------------------------------|
D|--------------------------------------------------------------------|
A|--------------------------------------------------------------------|


guitar one pre chrous 

E-----------------------------------------------------------------------------------------------|
B|----------------------------------------------------------------------------------------------|
G|----------------------------------------------------------------------------------------------|
D|000-0-000-0-000-0-000-0-000-0-000-0-000-0-000-0-000-0-000-0-000-0-000-0-000-0-000-0-000-0-000-|
A|000-0-000-0-000-0-000-0-000-0-000-0-000-0-000-0-000-0-000-0-000-0-000-0-000-0-000-0-000-0-000-|
D|000-0-000-0-000-0-000-0-000-0-000-0-000-0-000-0-000-0-000-0-000-0-000-0-000-0-000-0-000-0-000-|
A|----------------------------------------------------------------------------------------------|
PM*** * *** * *** * *** * *** * *** * *** * *** * *** * *** * *** * *** * *

Bridge
both guitars

E|----------------------------------------|
B|8-----------------------1-------4-------|
G|7---------------3-------2-------2-------|
D|5-------7-------1-------0-------1-------|
A|5-------3-------1-------0-------1-------|
D|5-------3-------1-------0-------1-------|
A|----------------------------------------|

guitar one chorus

E|------------------------------------------------------------------------|
B|------------------------------------------------------------------------|
G|------------------------------------------------------------------------|
D|77777778--88--88--33333334--44--44--55555555--55--55--55555555--55--55--|
A|55555555--55--55--00000000--00--00--11111111--11--11--11111111--11--11--|
D|55555555--55--55--00000000--00--00--11111111--11--11--11111111--11--11--|
A|------------------------------------------------------------------------|

------------------------------------|
------------------11111113--33--33--|
------------------33333333--33--33--|
77777778--88--88--33333333--33--33--|
55555555--55--55--11111111--11--11--|
55555555--55--55--------------------|
------------------------------------|

Okay now repeat all of this in the order :D

Build up to solo
E|------------------------------------------------------------------------|
B|------------------------------------------------------------------------|
G|------------------------------------------------------------------------|
D|0--0-----0--0-----0--0-----0--0-----0--0-----0--0-----0--0--0--0--0--0--|
A|0--0-----0--0-----0--0-----0--0-----0--0-----0--0-----0--0--0--0--0--0--|
D|0--0-----0--0-----0--0-----0--0-----0--0-----0--0-----0--0--0--0--0--0--|
A|------------------------------------------------------------------------|

Okay the solo, im working on now, give me...by monday and it will be on here.
i promise.

Chorus two.
both guitars

E|------------------------------------------------------------------------|
B|------------------------------------------------------------------------|
G|------------------------------------------------------------------------|
D|999999910-10--10--55555556--66--66--77777777--77--77--77777777--77--77--|
A|77777777--77--77--22222222--22--22--33333333--33--33--33333333--33--33--|
D|77777777--77--77--22222222--22--22--33333333--33--33--33333333--33--33--|
A|------------------------------------------------------------------------|

------------------------------------------------------------------------|
------------------33333335--55--55--------------------------------------|
------------------55555555--55--55--------------------------------------|
9999999A--AA--AA--55555555--55--55--77777777--77--77--77777777--77--77--|
77777777--77--77--33333333--33--33--33333333--33--33--33333333--33--33--|
77777777--77--77--------------------33333333--33--33--33333333--33--33--|
------------------------------------------------------------------------|

Done. :]

Tap to rate this tab
# A B C D E F G H I J K L M N O P Q R S T U V W X Y Z