Song name
# A B C D E F G H I J K L M N O P Q R S T U V W X Y Z

Stam1na - Erilaisen Rakkauden Todistaja tab

Stam1na ^_^

Okay. this is the demo verison, But you can play along to the record too. its all
the same :P. i just dont be doing antti parts in the record verison..

Tuning - A D A D G B E

intro[pekka]

E|-----------------------------------------------------------------|
B|-----------------------------------------------------------------|
G|-----------------------------------------------------------------|
D|--33-33-332-22-2-----------33-33-332-22-2--------------1-1-11-1--|
A|-----------------------4------------------------4------1-1-11-1--|
D|------------------0--3---------------------0--3--------1-1-11-1--|
A|-----------------------------------------------------------------|
PM ** ** *** **  *  *  *     **  ** *** ** * *  *

Intro[Antti]
E|--------------------------------------------------------------|
B|--------------------------------------------------------------|
G|--------------------------------------------------------------|
D|--------------------------------------------------------------|
A|--------------------------4----------------------------4------|
D|--00000--00000-0000--0--3---00000-0000-00000-000--0--3--------|
A|--------------------------------------------------------------|
PM ******  ***** ****  *  *   ****** *** ****** **  *  *

chorus[ antti ]
E|---------------------------------------------------------|
B|---------------------------------------------------------|
G|---------------------------------------------------------|
D|---------------------------------------------------------|
A|---33333333333--6666---------3333333333--66666-----------|
D|---55555555555--8888--3333---5555555555--88888--33333----|
A|---33333333333--6666--1111---3333333333--66666--11111----|

E|---------------------------------------------------------|
B|---------------------------------------------------------|
G|---------------------------------------------------------|
D|---------------------------------------------------------|
A|---33333333333--6666---------3333333333--66666-----------|
D|---55555555555--8888--3333---5555555555--88888--33333----|
A|---33333333333--6666--1111---3333333333--66666--11111----|

Chorus [ Pekka]
E|--------------------------------------------------------------|
B|------------------------------------------------------------3-|
G|--------------------------------------------------------3-5---|
D|----5---3-6---5-5---3-6---5-3-----5---3-6---5-5---3-5---------|
A|3-----------------------------3-------------------------------|
D|--------------------------------------------------------------|
A|--------------------------------------------------------------|

E|--------------------------------------------|
B|4---4---3-4---6*---4-4-------4--------------|
G|--------------------------------------3*----|
D|--------------------------------------------|
A|--------------------------------------------|
D|--------------------------------------------|
A|--------------------------------------------|

I will upload the rest tomorrow :D
Reason being...Stam1na rule.
Tap to rate this tab
 
# A B C D E F G H I J K L M N O P Q R S T U V W X Y Z