Song name
# A B C D E F G H I J K L M N O P Q R S T U V W X Y Z

Stam1na - Kadonneet Kolme Sanaa tab

Stam1na - Kadonneet kolme sanaa
-------------------------------


x = demppaus

B|----------|
G|----------|
D|0-----12--|
A|0-----12--|
D|0-----12--|liukuu nollaan
A|----------|
  x




pääriffi:

Alussa tätä soitetaan kaksi ja puoli kertaa.

  1.kitara
H|-----------------------------------------------------------------------------------------------|H
G|-----------------------------------------------------------------------------------------------|G
D|------------------------------------8-----7------------------------------------------5-----4---|D
A|--------------------------------5-6---5-6---------5h6h5-------------5h6h3--------3-5---3-5-----|A
D|0-000-0-0-0-0-0-0-0-000-0-0-0-0-------------0-000-------0-000-0-0-0----------------------------|D
A|---------------------------------------------------------------------------3-3-3---------------|A
  x xxx x x x x x x x xxx x x x x             x xxx       x xxx x x x        x x x

  2. kitara
E|-----------------------------------------------------------------------------------------------|E
H|-----------------------------------------------------------------------------------------------|H
G|-----------------------------------------------------------------------------------------------|G
D|------------------------------------8-----7-------7h8h7-------------7h8h5------------8-----9---|D
A|--------------------------------5-6---5-6---------5h6h5-------------5h6h3--------5-7---5-7-----|A
D|0-000-0-0-0-0-0-0-0-000-0-0-0-0-------------0-000-------0-000-0-0-0----------------------------|D
A|---------------------------------------------------------------------------3-3-3---------------|A
  x xxx x x x x x x x xxx x x x x             x xxx       x xxx x x x        x x x

  basso
D|-----------------------------------------------------------------------------------------------|D
A|-----------------------------------------------------------------------------------------------|A
D|0-000-0-0-0-0-0-0-0-000-0-0-0-0-0-0-0-0-0-0-0-000-0-0-0-0-000-0-0-0-0-0-0----------------------|D
A|---------------------------------------------------------------------------3-3-3-3-3-3-3-3-3---|A



  Perään iskut



  1. kitara
H|--------------------------------------------------------------------|
G|-------------------------------3------2-------------------5---------|
D|0--0-----0--0-----0--0-----0-2----0-2---0--0-----0--0-----3-----1---|
A|0--0-----0--0-----0--0------------------0--0-----0--0-----------1---|
D|0--0-----0--0-----0--0------------------0--0-----0--0-----------1---|
A|--------------------------------------------------------------------|
  x  x     x  x     x  x                  x  x     x  x

  2. kitara
E|---------------------------5-5-5--5-5-5-----------------------------|
H|--------------------------------------------------------------------|
G|--------------------------------------------------------------------|
D|0--0-----0--0-----0--0------------------0--0-----0--0-----5-----1---|
A|0--0-----0--0-----0--0------------------0--0-----0--0-----5-----1---|
D|0--0-----0--0-----0--0------------------0--0-----0--0-----5-----1---|
A|--------------------------------------------------------------------|
  x  x     x  x     x  x                  x  x     x  x

  basso (murnuttaa tabisivuilla olevien Hyrden ohjeiden mukaan)
D|--------------------------------------------------------------------|
A|--------------------------------------------------------------------|
D|0--0-----0--0-----0--0------------------0--0-----0--0-----5-----1---|
A|--------------------------------------------------------------------|





säkeistö:

  1.kitara (ennen säkeistön rankempaa osiota)
H|------------------------------------------------------------|
G|------------------------------------------------------------|
D|10-12-0---10-12-0---10-12-0---10-12-0---10-12-0---10-12-0---| jnejne...
A|------------------------------------------------------------|
D|------------------------------------------------------------|
A|------------------------------------------------------------|


  2.kitara toistaa tätä kuviota
E|--------------------------------------------------------------------|
H|--------11---------------10-----------------------------------------|
G|11--12-----------11--12-------------------12---------------11-------|
D|----------------------------------10--12-----------10--12-----------|
A|--------------------------------------------------------------------|
D|--------------------------------------------------------------------|
A|--------------------------------------------------------------------|




rankempi säkeistö:

  1.kitara & basso
H|----------------------------------------------------------------------------------------------|
G|----------------------------------------------------------------------------------------------|
D|000-0-000-0-000-0-000-0-000-0-000-0-000-0-000-0-000-0-000-0-000-0-000-0-000-0-000-0-000-0-000-|
A|000-0-000-0-000-0-000-0-000-0-000-0-000-0-000-0-000-0-000-0-000-0-000-0-000-0-000-0-000-0-000-|
D|000-0-000-0-000-0-000-0-000-0-000-0-000-0-000-0-000-0-000-0-000-0-000-0-000-0-000-0-000-0-000-|jne
A|----------------------------------------------------------------------------------------------|
  xxx x xxx x xxx x xxx x xxx x xxx x xxx x xxx x xxx x xxx x xxx x xxx x xxx x xxx x xxx x xxx

  2.kitara toistaa tätä kuviota
E|-------------------------------------------------------------|
H|-------------------------------------------------------------|
G|-------------------------------------------------------------|
D|------8-------------7----------------------------------------|
A|5--6----------5--6------------------10---------------9-------|
D|----------------------------10--12-----------10--12----------|
A|-------------------------------------------------------------|

   ihan lopussa nopeutuu ennen bridgeä





bridge:

  1. kitara & basso
H|----------------------------------------|
G|----------------------------------------|
D|5-------3-------1-------0-------1-------|
A|5-------3-------1-------0-------1-------|
D|5-------3-------1-------0-------1-------|
A|----------------------------------------|

  2.kitara
E|----------------------------------------|
H|8-----------------------1-------4-------|
G|7---------------3-------2-------2-------|
D|5-------7-------1-------0-------1-------|
A|5-------3-------1-------0-------1-------|
D|5-------3-------1-------0-------1-------|
A|----------------------------------------|






kertosäe: (lähteepi aina kolmannella iskulla)
 Tämä on vain yksi variaatio, päällekäin kuulostaa olevan enemmänkin kitaroita.
 Kymppiväli merkattu sekaannuksen estämiseksi A:na ja 12 C:nä.

 1.kitara
H|------------------------------------------------------------------------|
G|------------------------------------------------------------------------|
D|77777778--88--88--33333334--44--44--55555555--55--55--55555555--55--55--|
A|55555555--55--55--00000000--00--00--11111111--11--11--11111111--11--11--|
D|55555555--55--55--00000000--00--00--11111111--11--11--11111111--11--11--|
A|------------------------------------------------------------------------|

  ------------------11111113--33--33----|H
  ------------------33333333--33--33----|G
  77777778--88--88--33333333--33--33----|D
  55555555--55--55--11111111--11--11----|A
  55555555--55--55----------------------|D
  --------------------------------------|A

 2.kitara
E|------------------------------------------------------------------------|
H|------------------------------------------------------------------------|
G|77777777--77--77--77777777--77--77--88888888--88--88--88888888--88--88--|
D|55555555--55--55--77777777--77--77--88888888--88--88--88888888--88--88--|
A|------------------55555555--55--55--66666666--66--66--66666666--66--66--|
D|------------------------------------------------------------------------|
A|------------------------------------------------------------------------|

  --------------------------------------|E
  --------------------------------------|H
  77777777--77--77--77777777--77--77----|G
  55555555--55--55--33333337--77--77----|D
  -------------------------5--55--55----|A
  --------------------------------------|D
  --------------------------------------|A

  basso soittaa
D|------------------------------------------------------------------------|
A|------------------------------------------------------------------------|
D|5---5-----5---5---00000000--00--00--1---1-----1---1---1---1-----1---1---|
A|------------------------------------------------------------------------|

  --------------------------------------|D
  --------------------------------------|A
  5---5-----5---5---8---8-----8---8-----|D
  --------------------------------------|A





Siitä jatketaan säkeistöön, jossa on alussa pieni paussi toisen kitaran kuvion kanssa.
Säkeistö soitetaan nyt alimmalta kieleltä, viitosvälistä.

Rankempi kohta menee toisella kitaralla muuten samoin kuin aiemminkin mutta demppauksien välissä
isketään välillä:         + lopussa nopeaa demppausta (kuuntele kappaleesta niin hahmotat)
                                                                                  ------------|E
H|---------  ja lopulta ennen kertosäettä kieli jää soimaan  --4-------| ja 2.kit ------------|H
G|--7---7--                                                  ----------|          ------------|G
D|--7---7--                                                  ----------|          --1---------|D
A|--5---5--                                                  ----------|          --1---------|A
D|---------                                                  ----------|          --1---------|D
A|55--55---                                                  ----------|          ------------|A
  xx  xx






Kertosäe tulee tämän jälkeen seuraavasti:
(menee samalla tavalla kuin viimeksikin, on vain tuplattu + jatke välissä)

  Huomaa, että toisella kerralla kertsi katkeaa kuten ensimmäisellä kerralla
  ja jatkaa biisin pääriffiä.

 1.kitara
H|------------------------------------------------------------------------|
G|------------------------------------------------------------------------|
D|77777778--88--88--33333334--44--44--55555555--55--55--55555555--55--55--|
A|55555555--55--55--00000000--00--00--11111111--11--11--11111111--11--11--|
D|55555555--55--55--00000000--00--00--11111111--11--11--11111111--11--11--|
A|------------------------------------------------------------------------|

  ------------------11111113--33--33----------------------------------------|H
  ------------------33333333--33--33----------------------------------------|G
  77777778--88--88--33333333--33--33--55555555--55--55--55555555--55--55----|D
  55555555--55--55--11111111--11--11--11111111--11--11--11111111--11--11----|A
  55555555--55--55--------------------11111111--11--11--11111111--11--11----|D
  --------------------------------------------------------------------------|A

 2.kitara
E|------------------------------------------------------------------------|
H|------------------------------------------------------------------------|
G|77777777--77--77--77777777--77--77--88888888--88--88--88888888--88--88--|
D|55555555--55--55--77777777--77--77--88888888--88--88--88888888--88--88--|
A|------------------55555555--55--55--66666666--66--66--66666666--66--66--|
D|------------------------------------------------------------------------|
A|------------------------------------------------------------------------|

  --------------------------------------------------------------------------|E
  --------------------------------------------------------------------------|H
  77777777--77--77--77777777--77--77----------------------------------------|G
  55555555--55--55--33333337--77--77--88888888--88--88--88888888--88--88----|D
  -------------------------5--55--55--66666666--66--66--66666666--66--66----|A
  --------------------------------------------------------------------------|D
  --------------------------------------------------------------------------|A

  basso soittaa
D|------------------------------------------------------------------------|
A|------------------------------------------------------------------------|
D|5---5-----5---5---0---0-----0---0---1---1-----1---1---1---1-----1---1---|
A|------------------------------------------------------------------------|

  --------------------------------------------------------------------------|D
  --------------------------------------------------------------------------|A
  5---5-----5---5---8---8-----8---8---1---1-----1---1---1---1-----1---1-----|D
  --------------------------------------------------------------------------|A






Pääriffiä.. Huomaa, että lopussa ennen iskuja kielet nousevat oktaavin.
Sitten iskut ennen c-osaa:

H|------------------------------------------------------------------------|
G|------------------------------------------------------------------------|
D|0--0-----0--0-----0--0-----0--0-----0--0-----0--0-----0--0--0--0--0--0--|
A|0--0-----0--0-----0--0-----0--0-----0--0-----0--0-----0--0--0--0--0--0--|
D|0--0-----0--0-----0--0-----0--0-----0--0-----0--0-----0--0--0--0--0--0--|
A|------------------------------------------------------------------------|
  x  x     x  x     x  x     x  x     x  x     x  x     x  x  x  x  x  x

Itse c-osassa dempataan vain kakkosväliä. 8x hitaasti, 8 nopeammin jne..





soolo:
(A=10, B=11, C=12, D=13, E=14, F=15, G=16, H=17, I=18, J=19, K=20)
 b = bendaus/taivutus

E|--------C-------------C-------------F-------------F-------------|
H|----C-----C-D-C---C-----C-D-----D-----C-C-----------C-D-----D---|
G|--C---C-------------C-------C-----C-------C---C---------C-----C-|
D|E---------------E-------------E-------------E---E---------E-----|
A|----------------------------------------------------------------|
D|----------------------------------------------------------------|
A|----------------------------------------------------------------|

  ------------------------------------|E
  FHF--------HF-----------------------|H
  ---HGEGE-----HGEGE------------------|G
  --------HG--------HGEHG-------E-----|D
  -----------------------HFHE-Db------|A
  ---------------------------H--------|D
  ------------------------------------|A



Osion lopussa soitetaan:                   2. kitara nämä + basso
                                         E|--------------------------------|
H|66666666--66--66--66666666--66--66--|  H|--------------------------------|
G|------------------------------------|  G|----------------10--------------|
D|------------------------------------|  D|3---------------10--------------|
A|------------------------------------|  A|3---------------8---------------|
D|------------------------------------|  D|3-------------------------------|
A|------------------------------------|  A|--------------------------------|






Kertosäe nousee kaksi kielenväliä ja kitaroita tuntuu olevan taas enemmän ja enemmän.
Menee siis suurinpiirtein näin:          (A=10, B=11, C=12, D=13, E=14)

 1.kitara
H|------------------------------------------------------------------------|
G|------------------------------------------------------------------------|
D|9999999A--AA--AA--55555556--66--66--77777777--77--77--77777777--77--77--|
A|77777777--77--77--22222222--22--22--33333333--33--33--33333333--33--33--|
D|77777777--77--77--22222222--22--22--33333333--33--33--33333333--33--33--|
A|------------------------------------------------------------------------|

  ------------------33333335--55--55----------------------------------------|H
  ------------------55555555--55--55----------------------------------------|G
  9999999A--AA--AA--55555555--55--55--77777777--77--77--77777777--77--77----|D
  77777777--77--77--33333333--33--33--33333333--33--33--33333333--33--33----|A
  77777777--77--77--------------------33333333--33--33--33333333--33--33----|D
  --------------------------------------------------------------------------|A

 2.kitara
E|------------------------------------------------------------------------|
H|------------------------------------------------------------------------|
G|99999999--99--99--99999999--99--99--AAAAAAAA--AA--AA--AAAAAAAA--AA--AA--|
D|77777777--77--77--99999999--99--99--AAAAAAAA--AA--Aa--AAAAAAAA--AA--AA--|
A|------------------77777777--77--77--88888888--88--88--88888888--88--88--|
D|------------------------------------------------------------------------|
A|------------------------------------------------------------------------|

  --------------------------------------------------------------------------|E
  --------------------------------------------------------------------------|H
  99999999--99--99--99999999--99--99----------------------------------------|G
  77777777--77--77--55555559--99--99--AAAAAAAA--AA--AA--AAAAAAAA--AA--AA----|D
  -------------------------7--77--77--88888888--88--88--88888888--88--88----|A
  --------------------------------------------------------------------------|D
  --------------------------------------------------------------------------|A

  basso soittaa (A = 10)
D|------------------------------------------------------------------------|
A|------------------------------------------------------------------------|
D|77777777--77--77--22222222--22--22--33333333--33--33--33333333--33--33--|
A|------------------------------------------------------------------------|

  --------------------------------------------------------------------------|D
  --------------------------------------------------------------------------|A
  77777777--77--77--AAAAAAAA--AA--AA--33333333--33--33--33333333--33--33----|D
  --------------------------------------------------------------------------|A


Loppuun vielä kerran pääriffi.
Tap to rate this tab
 
# A B C D E F G H I J K L M N O P Q R S T U V W X Y Z