Song name
# A B C D E F G H I J K L M N O P Q R S T U V W X Y Z

Stam1na - Koe Murha tab

Stam1na - Koe murha!
--------------------

x = demppaus

pääriffi:
  1.kitara & basso
H|----------------------------------------------------------------|
G|----------------------------------------------------------------|
D|----------------------------------------------------------------|
A|----------------------------------------------------------------|
D|5-8-8-0-0-8-8-5-5-8-8-0-0-8-8-5-5-8-8-0-0-8-8-5-5-8-8-0-0-8-8-5-|
A|----------------------------------------------------------------|
  x x x x x x x x x x x x x x x x x x x x x x x x x x x x x x x

  ------------------------------------------------------------|H
  ------------------------------------------------------------|G
  --------------------------------------------------5---5-----|D
  --------------------------------------------------5---5-----|A
  --8-8-0-0-8-8-5-5-8-8-0-0-8-8-5-5-8-8-0-0-8-8-5-5-5---5-----|D
  ------------------------------------------------------------|A
    x x x x x x x x x x x x x x x x x x x x x x x x

  2.kitara
E|----------------------------------------------------------------|
H|----------------------------------------------------------------|
G|----------------------------------------------------------------|
D|--------------------------------------------------------------5-|
A|----------------------------------------------------------------|
D|5-8-8-0-0-8-8-5-5-8-8-0-0-8-8-5-5-8-8-0-0-8-8-5-5-8-8-0-0-8-8---|
A|----------------------------------------------------------------|
  x x x x x x x x x x x x x x x x x x x x x x x x x x x x x x x

  ------------------------------------------------------------|E
  ------------------------------------------------------------|H
  ------------------------------------------------------------|G
  --------------------------------------------------5---5-----|D
  --------------------------------------------------5---5-----|A
  --8-8-0-0-8-8-5-5-8-8-0-0-8-8-5-5-8-8-0-0-8-8-5-5-5---5-----|D
  ------------------------------------------------------------|A
    x x x x x x x x x x x x x x x x x x x x x x x x




bridge:

  1.kitara & basso (alkuviive johtuu toisesta kitarasta, suluilla merkityt saa soittaa, jos
haluaa)
H|-----------------------------------------------------------------------------------------------|H
G|------------5-----------------------5-----------------------5----------------------------------|G
D|------2-----5-----2-----------2-----5-----2--1--------2-----5-----2---------0-2-0-2-0--0-------|D
A|------2-----3-----2-----------2-----3-----2--1--------2-----3-----2---------0-2-0-2-0--0-------|A
D|------2-----------2-----------2-----------2--1--------2-----------2---------0-2-0-2-0--0-------|D
A|-----------------------------------------------------------------------------------------------|A

  2.kitara
E|-----------------------------------------------------------------------------------------------|E
H|---------------------------------------------------------------------------------------3-------|H
G|5-5-5-5-4---------------5-5-5-5-4---------------5-5-5-5-4------------------------------2-------|G
D|----------5-----------------------5-----------------------5-----------------4-5-4-5-4--0-------|D
A|--------------------------------------------------------------------------------------(0)------|A
D|--------------------------------------------------------------------------------------(0)------|D
A|-----------------------------------------------------------------------------------------------|A




Perään kertosäe:
(tästä on todella hankala saada selvää)

  1.kitara
H|------------------------------------------------------------|
G|4-4-4-4-4-4-4-4-4-4-4-4-4-4-4-4-4-4-4-4-4-4-4-4-4-4-4-4-4-4-| 2x
D|2-2-2-2-2-2-2-2-2-2-2-2-2-2-2-2-2-2-2-2-2-2-2-2-2-2-2-2-2-2-|
A|------------------------------------------------------------|
D|------------------------------------------------------------|
A|------------------------------------------------------------|


  2.kitara
E|------------------------------------------------|
H|5-5-5-5-4---------------5-5-5-5-4---------------|
G|----------4-----------------------4-------------|
D|------------------------------------------------|
A|------------------------------------------------|
D|------------------------------------------------|
A|------------------------------------------------|

  --------------------------------------------------------|E
  5-5-5-5-4---------------5-5-5-5-4-----------------------|H
  ----------4-----------------------4--4-4--4-4-4-4-6-7---|G
  --------------------------------------------------------|D
  --------------------------------------------------------|A
  --------------------------------------------------------|D
  --------------------------------------------------------|A

  basso
D|------------------------------------------------------------|
A|------------------------------------------------------------| 2x
D|7-7-7-6-6-6-5-5-5-5-5-5-5-5-5-7-7-7-6-6-6-5-5-5-5-5-5-5-5-5-|
A|------------------------------------------------------------|




Kertsin jälkeen:

  1.kitara & basso
H|--------------------------------------------------------------------------------|
G|--------------------------------------------------------------------------------|
D|--------------------------------------------------------------------------------|
A|--------------------------------------------------------------------------------|
D|5-8-8-0-0-8-8-5-5-8-8-0-0-8-8-5-5---------------------------------------1-2-3-4-|
A|--------------------------------------------------------------------------------|
  x x x x x x x x x x x x x x x x                                         x x x x

  2.kitara (A=10, B=11, C=12, D=13, E=14, F=15, G=16, H=17
            I=18, J=19, K=20, L=21, M=22)
E|----------------------------------------------I-F-M-I-------I-L-I---------------|
H|------------------------------------------------------K---K-------J-------------|
G|------------------------------------------H-J-----------J-----------I-----------|
D|--------------------------------5-F-H-J-K-----------------------------K---------|
A|--------------------------------5---------------------------------------G-------|
D|5-8-8-0-0-8-8-5-5-8-8-0-0-8-8-5-5-----------------------------------------------|
A|--------------------------------------------------------------------------------|
  x x x x x x x x x x x x x x x x




Perään soitetaan pääriffiä normaalisti, kunnes jatketaan
taas bridgeen ja siitä kertosäkeeseen.




c-osa:

H|---------------------------------------------------------------------------|
G|---------------------------------------------------------------------------|
D|------------------------------------------------2-2---2--2-5555---2--2--2--|
A|------------------------------------------------2-2---2--2--------2--2--2--|
D|5--5-5--55--5--5-5--5---7--7-7--77--7--7-7--7---2-2---2--2--------2--2--2--|
A|---------------------------------------------------------------------------|
     x x  xx  x  x x  x   x  x x  xx  x  x x  x

  ------------------------------------------|       toinen kitara soittaa
  ------------------------------------------|       huiluäänet g-kielen
  ------------------------------------------|       neljännestä välistä
  ------------------------------------------|
  5--5-5--55--5--5-5--5---7--7-7--77--7-----|
  ------------------------------------------|
     x x  xx  x  x x  x   x  x x  xx  x




Jatkuu sitten hieman vauhdikkaammin:

  basso: (soittaa myöhemmin c-osassa kitaran kanssa samaa)
D|---------------------------------------------------------------------------------------------|
A|---------------------------------------------------------------------------------------------|
D|4--4--4--4--4--4--4--4--4--4--4--4--4--4--4--4--4--4--4--4--4--4--4--5--5--5--5--6--6--6--6--|
A|---------------------------------------------------------------------------------------------|

  1.kitara
H|---------------------------------------------------------------------------------------------|
G|---------------------------------------------------------------------------------------------|
D|4--4--4--4--4--4--4--4--4--4--4--4--4--4--4--4--4--4--4--4--4--4--4--5--5--5--5--6--6--6--6--|
A|---------------------------------------------------------------------------------------------|
D|---------------------------------------------------------------------------------------------|
A|---------------------------------------------------------------------------------------------|

  -----------------------------------------------------------------------|H
  -----------------------------------------------------------------------|G
  4---4---4-----4---4---4-----4---4---4-----4---4---4----------3---------|D
  4---4---4-----4---4---4-----4---4---4-----4---4---4--------------------|A
  4-444-444-44444-444-444-44444-444-444-44444-444-444-66666666-----------|D
  -----------------------------------------------------------------------|A
    xx  xx  xxxx  xx  xx  xxxx  xx  xx  xxxx  xx  xx  xxxxxxxx


  2.kitara (A=10, B=11, C=12, D=13, E=14, F=15)
E|----------------------------------------------------------------------------|
H|----------------------------------------------------------------------------|
G|------------------------------------------------------------------------E---|
D|--------------------9-B-------B-9-------------------------------------------|
A|9------9-B-C------C---------------C-B------9-7------------------------------|
D|-------------------------------------------------B-------A-------9----------|
A|----------------------------------------------------------------------------|

  ---------------------------------9A9----------------------|E
  ----------------------------AC--A---CA9-------------------|H
  B------B-D-E--------------BD--BD-------B-A----------------|G
  ----------------------BC9B--------------------------------|D
  ------------------9BCE------------------------------------|A
  ----------------------------------------------------------|D
  ----------------------------------------------------------|A





Sitten ennen kertosäettä:

  1.kitara & basso
H|----------------------------------------------------------------------|
G|----------------------------------------------------------------------|
D|0---0---0---0---0---0---0---0---0---0---0---0----------0--------------|
A|0---0---0---0---0---0---0---0---0---0---0---0----------0--------------|
D|0---0---0---0---0---0---0---0---0---0---0---0---000--000--------------|
A|----------------------------------------------------------------------|
                                                  xxx  xx

  2.kitara
E|----------------------------------------------------------------------|
H|-------------------------------------------------------3--------------|
G|-------------------------------------------------------2--------------|
D|0---0---0---0---0---0---0---0---0---0---0---0----------0--------------|
A|0---0---0---0---0---0---0---0---0---0---0---0----------0--------------|
D|0---0---0---0---0---0---0---0---0---0---0---0---000--000--------------|
A|----------------------------------------------------------------------|
                                                  xxx  xx


Suureksi yllätykseksi bridge ja kertosäe nousee kaksi kielenväliä
ja menee seuraavasti:

  1.kitara
H|-----------------------------------------------------------------------------------------------|H
G|------------7-----------------------7-----------------------7----------------------------------|G
D|------4-----7-----4-----------4-----7-----4--3--------4-----7-----4---------2-4-2-4-2--2-------|D
A|------4-----5-----4-----------4-----5-----4--3--------4-----5-----4---------2-4-2-4-2--2-------|A
D|------4-----------4-----------4-----------4--3--------4-----------4---------2-4-2-4-2--2-------|D
A|-----------------------------------------------------------------------------------------------|A

  2.kitara
E|-----------------------------------------------------------------------------------------------|E
H|---------------------------------------------------------------------------------------5-------|H
G|7-7-7-7-6---------------7-7-7-7-6---------------7-7-7-7-6------------------------------4-------|G
D|----------7-----------------------7-----------------------7-----------------6-7-6-7-6--2-------|D
A|---------------------------------------------------------------------------------------2-------|A
D|---------------------------------------------------------------------------------------2-------|D
A|-----------------------------------------------------------------------------------------------|A




Ja lopun kertosäe:

  1.kitara
H|------------------------------------------------------------|
G|6-6-6-6-6-6-6-6-6-6-6-6-6-6-6-6-6-6-6-6-6-6-6-6-6-6-6-6-6-6-| 2x
D|4-4-4-4-4-4-4-4-4-4-4-4-4-4-4-4-4-4-4-4-4-4-4-4-4-4-4-4-4-4-|
A|------------------------------------------------------------|
D|------------------------------------------------------------|
A|------------------------------------------------------------|

  2.kitara
E|------------------------------------------------|
H|7-7-7-7-6---------------7-7-7-7-6---------------|
G|----------6-----------------------6-------------|
D|------------------------------------------------|
A|------------------------------------------------|
D|------------------------------------------------|
A|------------------------------------------------|

  --------------------------------------------------------|E
  7-7-7-7-6---------------7-7-7-7-6-----------------------|H
  ----------6-----------------------6--6-6--6-6-6-6-8-9---|G
  --------------------------------------------------------|D
  --------------------------------------------------------|A
  --------------------------------------------------------|D
  --------------------------------------------------------|A

  basso
D|------------------------------------------------------------|
A|------------------------------------------------------------| 2x
D|9-9-9-8-8-8-7-7-7-7-7-7-7-7-7-9-9-9-8-8-8-7-7-7-7-7-7-7-7-7-|
A|------------------------------------------------------------|




Biisin loppuun:
H|----------------------------------------------------------------|
G|----------------------------------------------------------------|
D|----------------------------------------------------------------|
A|----------------------------------------------------------------|
D|5-8-8-0-0-8-8-5-5-8-8-0-0-8-8-5-5-8-8-0-0-8-8-5-5-8-8-0-0-8-8-5-|
A|----------------------------------------------------------------|
  x x x x x x x x x x x x x x x x x x x x x x x x x x x x x x x x

  -----------------------------------------------|
  -----------------------------------------------|
  0---0---0---0---0---0---0---0---0--------------|
  0---0---0---0---0---0---0---0---0--------------|
  0---0---0---0---0---0---0---0---0--------------|>liukuu oktaavin ylös
  -----------------------------------------------|
  x   x   x   x   x   x   x   x
Tap to rate this tab
 
# A B C D E F G H I J K L M N O P Q R S T U V W X Y Z