Song name
# A B C D E F G H I J K L M N O P Q R S T U V W X Y Z

Stam1na - Viisi Laukausta Phn tab

Stam1na - Viisi laukausta päähän
--------------------------------

x = demppaus
b = bend
p = pinch harmonics
h = hammer on
/ = liuku
v = vibrato




alku:

  kitarat
E|------------|
H|------------|
G|------------|
D|3--0--------|
A|------4--1--|
D|------------|
A|------------|




intro:

  kitarat
E|------         --------------------------|E
H|------         --------------------------|H
G|------    24x  --------------------2-----|G
D|------         --------------------0-----|D
A|------         0--0--0--0--0--0--0-------|A
D|------         --------------------------|D
A|430---         --------------------------|A
  xxx                              x

  basso
D|------         --------------------------|D
A|------  24x    --------------------------|A
D|------         7--7--7--7--7--7--7-5-----|D
A|4-0---         --------------------------|A





verse:

  kitarat (nopeat demppikohdat triolina)
E|-------------------------------------------------------|
H|-------------------------------------------------------|
G|-------------------------------------------------------|  2x
D|----------------------------------------555555555555---|
A|2-2-2-4-4-4-5v--------5-----111111111111---------------|
D|----------------4---4---4------------------------------|
A|------------------2-------2----------------------------|
    x x   x x                 xxxxxxxxxxxxxxxxxxxxxxxx

 --------------------------------------------------------|E
 --------------------------------------------------------|H
 ----------------------------------------------------|G--| 2x
 0-0-0-2-2-2-3v--------3-----------------888888888888----|D
 ----------------0---0---0---444444444444----------------|A
 ------------------0-------0-----------------------------|D
 --------------------------------------------------------|A
   x x   x x                 xxxxxxxxxxxxxxxxxxxxxxxx




bridgenä toimii dempit:

E|------|
H|------|
G|------|    12xG
D|------|
A|------|
D|------|
A|430---|
  xxx






kertosäe:
  (ja lähteepi takapotkulla)

  1. kitara
E|---------------------------------------------------------------|
H|---------------------------------------------------------------|
G|---------------------------------------------------------------|
D|----------------------------------4-4-4-4-4-4-4-5-5-5-5-5-5--5-| 2x
A|----------------------------------4-4-4-4-4-4-4-5-5-5-5-5-5--5-|
D|4-4-4-4-4-4-4-4-4-2-2-2-2-2-2-2-2-4-4-4-4-4-4-4-5-5-5-5-5-5--5-|
A|2-2-2-2-2-2-2-2-2-0-0-0-0-0-0-0-0------------------------------|
                                                    x   x x

  ---------------------------------------------------------------|
  ---------------------------------------------------------------|
  ---------------------------------------------------------------|
  9-9-9-9-9-9--9-9-9-9-9-9-9--9----------------------------------|
  5-5-5-5-5-5--5-5-5-5-5-5-5--5----------------------------------|
  5-5-5-5-5-5--5-5-5-5-5-5-5--5--4-4-4-4-4-4-4-4-2-2-2-2-2-2-2-2-|
  -------------------------------2-2-2-2-2-2-2-2-0-0-0-0-0-0-0-0-|
    x   x x        x   x x

        loppuosa
  ---------------------------------------------------------------|
  ---------------------------------------------------------------|
  -------------------------9--9--9-9-9-9-9-9-9-9-6-6-6-6---6---6-|
  9-9-9-9-9-9--9-----------9--9--9-9-9-9-9-9-9-9-4-4-4-4---4---4-|
  5-5-5-5-5-5--5-----------7--7--7-7-7-7-7-7-7-7-----------------|
  5-5-5-5-5-5--5-------------------------------------------------|
  ---------------------------------------------------------------|
    x   x x                                        x x

  ---------------------------------------------------------------|
  ---------------------------------------------------------------|
  7-7-7-7-7-7-7-7------------------------------------------------|
  5-5-5-5-5-5-5-5------------------------------------------------|
  ----------------7-777-7--7--7----------------------------------|
  -------------------------------4-4-4-4-4-4-4-4-2-2-2-2-2-2-2-2-|
  -------------------------------2-2-2-2-2-2-2-2-0-0-0-0-0-0-0-0-|
                    xxx

  ----------------------------------|E
  ----------------------------------|H
  ----------------------------------|G
  4-4-4-4-4-4-4-4-------------------|D
  4-4-4-4-4-4-4-4-------------------|A
  4-4-4-4-4-4-4-4-0-0-0-0-2-2-2-2---|D
  ----------------------------------|A
                  x x x x



  2.kitara
E|--------------------------------------------------------------|
H|--------------------------------------------------------------|
G|--------------------------------------------------------------|
D|9-9-9-9-9-9-9-9-9-9-9-9-9-9-9-9-9-8-8-8-8-8-8-8-9-9-9-9-9-9-9-| 2x
A|--------------------------------------------------------------|
D|--------------------------------------------------------------|
A|--------------------------------------------------------------|

  ---------------------------------------------------------------|
  ---------------------------------------------------------------|
  ---------------9-9-9-9-9-9--9----------------------------------|
  9-9-9-9-9-9--9-7-7-7-7-7-7--7--9-9-9-9-9-9-9-9-9-9-9-9-9-9-9-9-|
  7-7-7-7-7-7--7-------------------------------------------------|
  ---------------------------------------------------------------|
  ---------------------------------------------------------------|
    x   x x        x   x x

      loppuosa (A = 10)
  ---------------------------------------------------------------|
  ---------------------------------------------------------------|
  -------------------------9--9----------------------------------|
  9-9-9-9-9-9--9-----------7--7------------------ ---------------|
  7-7-7-7-7-7--7-----------------7-7-7-7-7-7-7-7-9-9-9-A---9---7-|
  ---------------------------------------------------------------|
  ---------------------------------------------------------------|
    x   x x

  ---------------------------------------------------------------|
  ---------------------------------------------------------------|
  ----------------9-999-9--9--9----------------------------------|
  -------------------------------9-9-9-9-9-9-9-9-9-9-9-9-9-9-9-9-|
  A-A-A-A-A-A-A-A------------------------------------------------|
  ---------------------------------------------------------------|
  ---------------------------------------------------------------|
                    xxx

  ----------------------------------|E
  ----------------------------------|H
  ----------------------------------|G
  9-9-9-9-9-9-9-9-------------------|D
  ----------------------------------|A
  ----------------------------------|D
  ----------------------------------|A


  basso
D|---------------------------------------------------------------| 2x
A|---------------------------------------------------------------|
D|----------------------------------4-4-4-4-4-4-4-5-5-5-5-5-5--5-|
A|2-2-2-2-2-2-2-2-2-0-0-0-0-0-0-0-0------------------------------|

  ---------------------------------------------------------------|
  ---------------------------------------------------------------|
  5-5-5-5-5-5--5-5-5-5-5-5-5--5----------------------------------|
  -------------------------------2-2-2-2-2-2-2-2-0-0-0-0-0-0-0-0-|

        loppuosa
  ---------------------------------------------------------------|
  ---------------------------------------------------------------|
  5-5-5-5-5-5--5-----------5--5----------------------------------|
  -------------------------------0-0-0-0-0-0-0-0-0-0-0-0-0-0-0-0-|

  --------------------------------------------------------------|
  --------------------------------------------------------------|
  --------------------------------------------------------------|
  3-3-3-3-3-3-3-3-3-3-3-3-3-3-3-2-2-2-2-2-2-2-2-0-0-0-0-0-0-0-0-|

  ----------------------------------|D
  ----------------------------------|A
  4-4-4-4-4-4-4-4-0-0-0-0-2-2-2-2---|D
  ----------------------------------|A





Kertsin jälkeen verse hieman eri tavalla:
  kitarat (nopeat demppikohdat triolina)
E|-------------------------------------------------------|
H|-------------------------------------------------------|
G|-------------------------------------------------------|  2x
D|----------------------------------------555555555555---|
A|2-2-2-4-4-4-5v--------5-----111111111111---------------|
D|----------------4---4---4------------------------------|
A|------------------2-------2----------------------------|
   x x   x x                 xxxxxxxxxxxxxxxxxxxxxxxx

    (3p = eka kerralla harmonics, sitten vibrato)
 --------------------------------------------------------|E
 --------------------------------------------------------|H
 ----------------------------------------------------|G--| 2x
 0-0-0-2-2-2-3p--------3-----------------888-888-888-----|D
 ----------------0---0---0---444-444-444-----------------|A
 ------------------0-------0-----------------------------|D
 --------------------------------------------------------|A
   x x   x x                 xxxxxxxxxxxxxxxxxxxxxxxx


  bridge:
E|----------------------------------|E
H|----------------------------------|H
G|----------------------------------|G
D|----------------------------------|D
A|----------------------------------|A
D|----------------------------------|D
A|3-0---3-0---3-0---3-0---3-0-3-0---|A
  x x   x x   x x   x x   x x x x





Perään kertosäe kuten aiemminkin.



c-osan alku:

  1. kitara     (perään yksi kerta soittamatta)
E|----------------------------------------------------------------|
H|----------------------------------------------------------------|
G|4---------------------------------------------------------------|
D|4---------------------------------------------------------------|
A|2---------------------------------------------------------------|
D|----------------------------------------------------------------|
A|----------------------------------------------------------------|

  ----------------------------------------------------------------|
  ----------------------------------------------------------------|
  ----------------------------------------------------------------|
  ----------------------------------------------------------------|
  2-----2-----2---2-----2-----2---2-----2-----2---2-----2-0---2---|
  --2-----2-----2---2-----2-----2---5-0---5-0---5---5-0---5-0---5-|
  ----2-----2---------2-----2-------------------------------------|
  x x x x x x x x x x x x x x x x x x x x x x x x x x x x x x x x

  ------------------------------------------------------------------|E
  ------------------------------------------------------------------|H
  ------------------------------------------------------------------|G
  ------------------------------------------------------------------|D
  2-----2-----2---2-----2-----2---2-----2-----2---2-----------------|A
  --2-----2-----2---2-----2-----2---5-0---5-0---5---5-5-5-5-5-5-5---|D
  ----2-----2---------2-----2---------------------------------------|A
  x x x x x x x x x x x x x x x x x x x x x x x x x


  2. kitara    (A = 10)
E|---------------------------------------------------------------------|E
H|---------------------------------------------------------------------|H
G|----------------------------------------------------------------|G---|  4x
D|9-----9-----9---9-----9-----9---9-----9-----9--9-----9-----9---------|D
A|--9-----9-----9---9-----9-----9---A-7---A-7---A--A-7---A-7---A-------|A
D|----9-----9---------9-----9------------------------------------------|D
A|---------------------------------------------------------------------|A
  x x x x x x x x x x x x x x x x x x x x x x x x x x x x x x x x

  basso        (jättää toisella kertaa soittamatta)
D|----------------------------------------------------------------|
A|----------------------------------------------------------------|
D|----------------------------------------------------------------|
A|2---------------------------------------------------------------|





c-osa:

  1. kitara
E|--------------------------------------------------------|
H|--------------------------------------------------------|  2x
G|--------------------------------------------------------|
D|--------------------------------------------------------|
A|--------------------------------------------------------|
D|6---6-6-6---6-6---6-6-6---6-6---6-6-6---6-6---6-6-6---6-|
A|4---4-4-4---4-4---4-4-4---4-4---4-4-4---4-4---4-4-4---4-|
        x     x       x     x       x     x       x     x

  2. kitara
E|----------------------------------------------------------------|
H|----------------------------------------------------------------|
G|13---16-13------------18pv-13--------18-------------------------|
D|-----------16-15-16-------------15------15------------19pv-15---|
A|-------------------------------------------17-16-17-------------|
D|----------------------------------------------------------------|
A|----------------------------------------------------------------|

  13--/14------------------------14-13-----------------------------------------------------|E
  --------14--/12/14---14v--15---------15-14-----------------------------------------------|H
  -------------------------------------------14-16-13--------------------------------------|G
  ----------------------------------------------------16-13-16-15-12-10-9------------------|D
  ------------------------------------------------------------------------12-11-9-8pv------|A
  -----------------------------------------------------------------------------------------|D
  -----------------------------------------------------------------------------------------|A

  basso
D|--------------------------------------------------------|
A|--------------------------------------------------------|
D|--------------------------------------------------------|
A|4---4-4-4---4-4---4-4-4---4-4---4-4-4---4-4---4-4-4---4-|





c-osa-2:

  1.kitara
E|-----------------------------------------------------------------|
H|-----------------------------------------------------------------|
G|-----------------------------------------------------------------|
D|-----------------------------------------------------------------|
A|2-----2-----2---2-----2-----222-2-----2-----2---2222222222222222-|
D|--2-----2-----2---2-----2---------5-0---5-0---5------------------|
A|----2-----2---------2-----2--------------------------------------|
  x x x x x x x x x x x x x x xxx x x x x x x x x xxxxxxxxxxxxxxxx

  ------------------------------------------------------------------|E
  ------------------------------------------------------------------|H
  ------------------------------------------------------------------|G
  ------------------------------------------------------------------|D
  2-----2-----2---2-----2-----2---2-----2-----2---2-----2-----2-----|A
  --2-----2-----2---2-----2-----2---5-0---5-0---5---5-0---5-0---5---|D
  ----2-----2---------2-----2---------------------------------------|A
  x x x x x x x x x x x x x x x x x x x x x x x x x x x x x x x x


  2. kitara

E|------------------------------------------------------------------|
H|------------------------------------------------------------------|
G|------------------------------------------------------------------|
D|9-----9-----9---9-----9-----9---9-----9-----9---9999999999999999--|
A|--9-----9-----9---9-----9-----9---A-7---A-7---A-------------------|
D|----9-----9---------9-----9---------------------------------------|
A|------------------------------------------------------------------|
  x x x x x x x x x x x x x x x x x x x x x x x x x x x x x x x x

  ------------------------------------------------------------------|E
  ------------------------------------------------------------------|H
  ------------------------------------------------------------------|G
  9-----9-----9---9-----9-----9---9-----9-----9--9-----9-----9------|D
  --9-----9-----9---9-----9-----9---A-7---A-7---A--A-7---A-7---A----|A
  ----9-----9---------9-----9---------------------------------------|D
  ------------------------------------------------------------------|A
  x x x x x x x x x x x x x x x x x x x x x x x x x x x x x x x x


  basso
D|--------------------------------------------------------------------|D
A|----------------------------------------------------------------|A--| 2x
D|----------------------------2---------------------------------------|D
A|2-------------------------------------------------------------------|A







c-osa-3:

  1. kitara
E|----------------    --------------------------------------|E
H|----------------    ----------------------------------|H--| 4x
G|----------------    --------------------------------------|G
D|----------------    --------------------------------------|D
A|----------------    --------------------------------------|A
D|----------------    --------------------------------------|D
A|0---------------    0---0---0---0-----0-0-0-0-0-0-0-0-----|A
                                        x x x x x x x x

                      --------------------------------------|E
                      ----------------------------------|H--| 3x
                      --------------------------------------|G
                      --------------------------------------|D
                      --------------------------------------|A
                      7---7---7---8--/3---------------------|D
                      ------------------0-0-0-0-0-0-0-0-----|A
                                        x x x x x x x x

                      ----------------------------------------------|E
                      ----------------------------------------------|H
                      ----------------------------------------------|G
                      ----------------------------------------------|D
                      ----------------------------------------------|A
                      7---7---7---8---7---8---7---8---7---8---7-----|D
                      ----------------------------------------------|A

  2. kitara
E|----------------    --------------------------------------|E
H|----------------    ----------------------------------|H--| 4x
G|----------------    --------------------------------------|G
D|----------------    --------------------------------------|D
A|----------------    --------------------------------------|A
D|----------------    --------------------------------------|D
A|0---------------    0---0---0---0-----0-0-0-0-0-0-0-0-----|A
                                        x x x x x x x x

                      --------------------------------------|E
                      ----------------------------------|H--| 3x
                      --------------------------------------|G
                      --------------------------------------|D
                      --------------------------------------|A
                      7---7---7---8p-/3---------------------|D
                      ------------------0-0-0-0-0-0-0-0-----|A
                                        x x x x x x x x

                      ----------------------------------------------|E
                      ----------------------------------------------|H
                      ----------------------------------------------|G
                      ----------------------------------------------|D
                      ----------------------------------------------|A
                      7---7---7---6---7---6---7---6---7---6---7-----|D
                      ----------------------------------------------|A


  basso  (alussa sammutetaan)
D|----------------    ------------------------------------|D
A|----------------    ------------------------------------|A
D|----------------    ------------------------------------|D
A|0---0---0---0---    0---0---0---0-----0-0-0-0-0-0-0-0---|A







Viimeinen kertosäe alkaa Hynysen ininällä ja pelkällä
kakkoskitaralla. Muuten normaalisti mutta ihan viimeiset
demppaukset 2. kitara soittaa:

  2. kitara
  ------------------|E
  ------------------|H
  ------------------|G
  4-4-4-4-4-4-4-4---|D
  ------------------|A
  ------------------|D
  ------------------|A
  x x x x x x x x






loppu:

  1. kitara
E|------      --------------------------------     ------     ----------|E
H|------      --------------------------------     ------     ----------|H
G|------ 16x  --------------------------------     ------ 8x  ----------|G
D|------      --------------------------------     ------     ----------|D
A|------      --------------------------------     ------     ----------|A
D|------      --------------------------------     ------     3---------|D
A|430---      3-0---3-0---3-0---3-0---3-0-3-0-     430---     1---------|A
  xxx         x x   x x   x x   x x   x x x x      xxx

  2. kitara
E|------      --------------------------------     ------     ----------|E
H|------      --------------------------------     ------     ----------|H
G|------ 16x  --------------------------------     ------ 8x  3---------|G
D|------      --------------------------------     ------     3---------|D
A|------      --------------------------------     ------     1---------|A
D|------      --------------------------------     ------     ----------|D
A|430---      3-0---3-0---3-0---3-0---3-0-3-0-     430---     ----------|A
  xxx         x x   x x   x x   x x   x x x x      xxx

  basso
D|------      --------------------------------     ------     ----------|D
A|------ 16x  --------------------------------     ------ 8x  ----------|A
D|------      --------------------------------     ------     ----------|D
A|4-0---      3-0---3-0---3-0---3-0---3-0-3-0-     4-0---     1---------|A
Tap to rate this tab
 
# A B C D E F G H I J K L M N O P Q R S T U V W X Y Z