Song name
# A B C D E F G H I J K L M N O P Q R S T U V W X Y Z

Stam1na - Paha Arkkitehti tab

			     Paha Arkkitehti - Stam1na

Info: I'm pretty sure that this tab has some mistakes on it, i learned the 
song by ear and made a tab of it. If you can correct my mistakes, please 
send me email: tume95@windowslive.com

Tabbed by: Tume

Tuning: Drop D

                  
e|--------------------------------------|
A|--------------------------------------|
G|----------------5*--------------------|  
D|-0-0-0-0-0-0-0--5*--------------------|
A|-0-0-0-0-0-0-0--5*--------------------|
D|-0-0-0-0-0-0-0------------------------|
pm--------------

Intro

e|---------------------------------------------------------------------------|
A|---------------------------------------------------------------------------|
G|---------------------------------------------------------------------------|
D|------------------------------------------------------------------------5--|
A|------3h5-------5h7-------7h8-------8h10-------8p7-------5h7-------8p7--5--|
D|-0-0-------0-0-------0-0-------0-0--------0-0-------0-0-------0-0-------5--|
pm----       ---       ---       ---        ---       ---       ---


e|---------------------------------------------------------------------------|
A|---------------------------------------------------------------------------|
G|------------------------------------------101010-9-9-9--1010-9-9--5-5--7-7-|
D|---------------------------------------------------------------------------|
A|------3h5-------5h7-------7h8-------8h10--8-8-8--7-7-7--8-8--7-7--3-3--5-5-|
D|-0-0-------0-0-------0-0-------0-0-----------------------------------------|
pm-----      ---       ---       ---


e|---------------------------------------------------------------------------|
A|---------------------------------------------------------------------------|
G|---------------------------------------------------------------------------|
D|------------------------------------------------------------------------5--|
A|------3h5-------5h7-------7h8-------8h10-------8p7-------5h7-------8p7--5--|
D|-0-0-------0-0-------0-0-------0-0--------0-0-------0-0-------0-0-------5--|
pm----       ---       ---       ---        ---       ---       ---


e|---------------------------------------------------------------------------|
A|---------------------------------------------------------------------------|
G|------------------------------------------101010-9-9-9--1010-9-9--5-5--7-7-|
D|---------------------------------------------------------------------------|
A|------3h5-------5h7-------7h8-------8h10--8-8-8--7-7-7--8-8--7-7--3-3--5-5-|
D|-0-0-------0-0-------0-0-------0-0-----------------------------------------|
pm----       ---       ---       ---
Verse1

   Tunnen Miehen väkivaltaisen.. Hän pelon pilareita mielikuviin rakentaa!
e|---------------------------------------------------------------------------|
A|---------------------------------------------------------------------------|
G|---------------------------------------------------------------------------|
D|-5-3-5--5-3-5--------------------------------------------------------------|
A|-5-3-5--5-3-5--------------------------------------------------------------|
D|-5-3-5--5-3-5-------5*-----------------------------------------------------|
pm-------------

..aaa              Hänellä on tavoite..............Nimetä Vihollinen
e|---------------------------------------------------------------------------|
A|---------------------------------------------------------------------------|
G|---------------------------------------------------------------------------|
D|-------------------------------------------------6---5---3---5-------------|
A|-----5---3---5---6---5---3---3h5-----5---3---5---6---5---3---5-------------|
D|-0-0---0---0---0---0---0---0-----0-0---0---0---0-6---5---3---5-------------|
pm----   -   -   -   -   -   -     - -   -   -   -

   Kaivaa Vallit vielä syvemmiksi.. Varustaa kodit pommisuojiksi!
e|---------------------------------------------------------------------------|
A|---------------------------------------------------------------------------|
G|---------------------------------------------------------------------------|
D|--5-3-5--5-3-5-33-5h6p5------------5-3-5--5-3-5-33-5h6p3-------------------|
A|--5-3-5--5-3-5-33-5h6p5------------5-3-5--5-3-5-33-5h6p3-------------------|
D|--5-3-5--5-3-5-33-5h6p5------------5-3-5--5-3-5-33-5h6p3-------------------|
pm-----------------                  ---------------

       Asentaa lukkoja takaoviin.......ja ovet......Takalukkoon!
e|---------------------------------------------------------------------------|
A|---------------------------------------------------------------------------|
G|---------------------------------------------------------------------------|
D|-------------------------------------------------6---5---3---5-------------|
A|-----5---3---5---6---5---3---3h5-----5---3---5---6---5---3---5-------------|
D|-0-0---0---0---0---0---0---0-----0-0---0---0---0-6---5---3---5-------------|
pm----   -   -   -   -   -   -     - -   -   -   -


 Chorus: both guitars 2x


GTR1 Chorus 
e|---------------------------------------------------------------------------|
A|---------------------------------------------------------------------------|
G|---------------------------------------------------------------------------|  
D|-0------1-------4-----5------0-----1-----4-----5---------------------------|
A|-0------1-------4-----5------0-----1-----4-----5---------------------------|
D|-0------1-------4-----5------0-----1-----4-----5---------------------------|


GTR2 Chorus [im pretty unsure about this part]
e|---------------------------------------------------------------------------|
A|---------------------------------------------------------------------------|
G|-7------8-------12----11-----7-----8-----12----14--------------------------|
D|---------------------------------------------------------------------------|
A|-5------6-------10----9------5-----6-----10----12--------------------------|
D|---------------------------------------------------------------------------|

Bridge (same as the Intro but it doesn't come 2times.)
e|---------------------------------------------------------------------------|
A|---------------------------------------------------------------------------|
G|---------------------------------------------------------------------------|
D|------------------------------------------------------------------------5--|
A|------3h5-------5h7-------7h8-------8h10-------8p7-------5h7-------8p7--5--|
D|-0-0-------0-0-------0-0-------0-0--------0-0-------0-0-------0-0-------5--|
pm----       ---       ---       ---        ---       ---       ---


e|---------------------------------------------------------------------------|
A|---------------------------------------------------------------------------|
G|------------------------------------------101010-9-9-9--1010-9-9--5-5--7-7-|
D|---------------------------------------------------------------------------|
A|------3h5-------5h7-------7h8-------8h10--8-8-8--7-7-7--8-8--7-7--3-3--5-5-|
D|-0-0-------0-0-------0-0-------0-0-----------------------------------------|
pm ---       ---       ---       ---
Verse2 
    infrastruckuuri, tämä kulttuuri..
e|---------------------------------------------------------------------------|
A|---------------------------------------------------------------------------|
G|---------------------------------------------------------------------------|
D|--5-3-5--5-3-5-33-5h6p5------------5-3-5--5-3-5-33-5h6p3-------------------|
A|--5-3-5--5-3-5-33-5h6p5------------5-3-5--5-3-5-33-5h6p3-------------------|
D|--5-3-5--5-3-5-33-5h6p5------------5-3-5--5-3-5-33-5h6p3-------------------|
pm-----------------                  ---------------

  Hänellä on tavoite..                             Manata perkele!
e|---------------------------------------------------------------------------|
A|---------------------------------------------------------------------------|
G|---------------------------------------------------------------------------|
D|-------------------------------------------------6---5---3---5-------------|
A|-----5---3---5---6---5---3---3h5-----5---3---5---6---5---3---5-------------|
D|-0-0---0---0---0---0---0---0-----0-0---0---0---0-6---5---3---5-------------|
pm----   -   -   -   -   -   -     - -   -   -   -

  POIS! ja pelkoa kylvää..  
e|---------------------------------------------------------------------------|
A|---------------------------------------------------------------------------|
G|---------------------------------------------------------------------------|
D|-5---3---5---3---5h6p5-------------5---3---5---3---5h6p3-------------------|
A|-5---3---5---3---5h6p5-------------5---3---5---3---5h6p3-------------------|
D|-5---3---5---3---5h6p5-------------5---3---5---3---5h6p3-------------------|
pm -------------                     -------------

  Niin paljon savua ettei kukaan näe..
e|---------------------------------------------------------------------------|
A|---------------------------------------------------------------------------|
G|---------------------------------------------------------------------------|
D|-------------------------------------------------6---5---3---5-------------|
A|-----5---3---5---6---5---3---3h5-----5---3---5---6---5---3---5-------------|
D|-0-0---0---0---0---0---0---0-----0-0---0---0---0-6---5---3---5-------------|
pm----   -   -   -   -   -   -     - -   -   -   -


Chorus: both guitars 2x


GTR1 Chorus 
e|---------------------------------------------------------------------------|
A|---------------------------------------------------------------------------|
G|---------------------------------------------------------------------------|  
D|-0------1-------4-----5------0-----1-----4-----5---------------------------|
A|-0------1-------4-----5------0-----1-----4-----5---------------------------|
D|-0------1-------4-----5------0-----1-----4-----5---------------------------|


GTR2 Chorus
e|---------------------------------------------------------------------------|
A|---------------------------------------------------------------------------|
G|-7------8-------12----11-----7-----8-----12----14--------------------------|
D|---------------------------------------------------------------------------|
A|-5------6-------10----9------5-----6-----10----12--------------------------|
D|---------------------------------------------------------------------------|

Somekind of breakdown.

e|---------------------------------------------|
A|---------------------------------------------|
G|---------------------------------------------|  2 times
D|-3--0--0--0-0-0-0-0-1--3--0--0--0-0-0-0-0-1--|
A|-3--0--0--0-0-0-0-0-1--3--0--0--0-0-0-0-0-1--|
D|-3--0--0--0-0-0-0-0-1--3--0--0--0-0-0-0-0-1--|
pm    ---------------       ---------------


e|---------------------------------------------|
A|---------------------------------------------|
G|---------------------------------------------|  
D|---------------------------------------------|
A|---------------------------------------------|
D|---------------------------------------------|



e|---------------------------------------------|
A|---------------------------------------------|
G|---------------------------------------------|  2 times
D|-3--0--0--0-0-0-0-0-1--3--0--0--0-0-0-0-0-1--|
A|-3--0--0--0-0-0-0-0-1--3--0--0--0-0-0-0-0-1--|
D|-3--0--0--0-0-0-0-0-1--3--0--0--0-0-0-0-0-1--|
pm    ---------------       ---------------

   These are natural harmonics
e|---------------------------------------------|
A|---------------------------------------------|
G|-5*5*5*5*5-----------------------------------|  
D|-5*5*5*5*5-----------------------------------|
A|-5*5*5*5*5-----------------------------------|
D|---------------------------------------------|



e|---------------------------------------------|
A|---------------------------------------------|
G|---------------------------------------------|  2 times
D|-3--0--0--0-0-0-0-0-1--3--0--0--0-0-0-0-0-1--|
A|-3--0--0--0-0-0-0-0-1--3--0--0--0-0-0-0-0-1--|
D|-3--0--0--0-0-0-0-0-1--3--0--0--0-0-0-0-0-1--|
pm    ---------------       ---------------

Chorus starts right after this.
e|---------------------------------------------|
A|---------------------------------------------|
G|---------------7-----------------------------|  
D|-4-3-1--0-1----------0-1---5--5555--5--5555-5|
A|-4-3-1--0-1----5-----0-1---5--5555--5--5555-5|
D|-4-3-1--0-1----------0-1---5--5555--5--5555-5|



Chorus: both guitars 2x


GTR1 Chorus 
e|---------------------------------------------------------------------------|
A|---------------------------------------------------------------------------|
G|---------------------------------------------------------------------------|  
D|-0------1-------4-----5------0-----1-----4-----5---------------------------|
A|-0------1-------4-----5------0-----1-----4-----5---------------------------|
D|-0------1-------4-----5------0-----1-----4-----5---------------------------|


GTR2 Chorus
e|---------------------------------------------------------------------------|
A|---------------------------------------------------------------------------|
G|-7------8-------12----11-----7-----8-----12----14--------------------------|
D|---------------------------------------------------------------------------|
A|-5------6-------10----9------5-----6-----10----12--------------------------|
D|---------------------------------------------------------------------------|


Outro 
e|---------------------------------------------------------------------------|
A|---------------------------------------------------------------------------|
G|-8--8--8--7--7--7--7--7--7--10-10-10-7--7--7--7--7--7----------------------|  
D|---------------------------------------------------------------------------|
A|-6--6--6--5--5--5--5--5--5--8--8--8--5--5--5--5--5--5----------------------| 
D|---------------------------------------------------------------------------|

                 

e|---------------------------------------------------------------------------|
A|---------------------------------------------------------------------------|
G|-8--8--8--7----------------------------------------------------------------|  
D|----------------0--3--0--3--0--3--0--3-------------------------------------|
A|-6--6--6--5-----0--3--0--3--0--3--0--3-------------------------------------|
D|----------------0--3--0--3--0--3--0--3-------------------------------------|
pm                -     -     -     -


e|---------------------------------------------------------------------------|
A|---------------------------------------------------------------------------|
G|-8--8--8--7--7--7--7--7--7--10-10-10-7--7--7--7--7--7----------------------|  
D|---------------------------------------------------------------------------|
A|-6--6--6--5--5--5--5--5--5--8--8--8--5--5--5--5--5--5----------------------| 
D|---------------------------------------------------------------------------|



e|---------------------------------------------------------------------------|
A|---------------------------------------------------------------------------|
G|-8--8--8--7----------------------------------------------------------------|  
D|----------------0--3--0--3--0--3--0--3-----0-------------------------------|
A|-6--6--6--5-----0--3--0--3--0--3--0--3-----0-------------------------------|
D|----------------0--3--0--3--0--3--0--3-----0-------------------------------|
pm                -     -     -     -       


e|---------------------------------------------------------------------------|
A|---------------------------------------------------------------------------|
G|----------7----------------------------------------------------------------|  
D|---------------------------------------------------------------------------|
A|----------5------Just strum this few times.--------------------------------|
D|----------0----------------------------------------------------------------|



| h   hammer-on
| p   pull-off
| *   harmonic
|pm-  palm mute
Tap to rate this tab
 
# A B C D E F G H I J K L M N O P Q R S T U V W X Y Z