Song name
# A B C D E F G H I J K L M N O P Q R S T U V W X Y Z

Stampeders - Ramona tab

Ramona
By: The Stampeders
Tabbed: Samuel Scheideman

This will give you a rough idea of what to do

Intro                      F  C
e-----------------------------------------------------------|
B--7--------------------------------------------------------|
G--7-7---7---7---7---7----10--------------------------------|
D--7----------------------10-10-----------------------------|
A--5---5---5---5---5---5--8--10-----------------------------|
D----------------------------10-----------------------------|
D
Its Time to get on my way
D                            C    G  D           C F
Its Time to love its time to gain ah la la la la
D
Its time to free my soul
D                           C   G D
Its time to go and rock and roll… rock and roll

                    G
Baby I might go and see
                         D
See Ramona Ramona Ramona get it all tonight
                     G
Baby I might go and (dream?)
                            D
Dream? Ramona Ramona Ramona on this summer night
          Bb                   G
And we’ll lie awake and we’ll lie awake


Oh Ramona and me
e-----------------------------------------------------------|
B-----------------------------------------------------------|
G-----------------------------------------------------------|
D--------------0-0-0-3-5-0-3-0------------------------------|
A--------------0-0-0-3-5-0-3-0------------------------------|
D--------------0-0-0-3-5-0-3-0------------------------------|
Play that sweet little riff a few times then end on G

Its time to say good bye
Its time to leave Its time to die ah la la la la
I must be on my way before the sunset fades away ah la la la la
Tap to rate this tab
# A B C D E F G H I J K L M N O P Q R S T U V W X Y Z