Song name
# A B C D E F G H I J K L M N O P Q R S T U V W X Y Z

Stampin Ground - Pain Is Weakness Leaving The Body tab

Intro
|---------------|
|---------------|
|---------------|
|---------------|
|-2-----------2-|
|-0-----------0-|

Pre-Verse
|-------------------------|
|-------------------------|
|-------------------------|
|-----------------------6-|
|-----2-----2-----5-44444-|
|-00000-00000-33333-------|

Verse
|--------------------|
|--------------------|
|--------------------|
|----------------666-|
|---2---22---555-444-|
|-0-0-0-00-0-333-----|

Chorus
|---------|---------------|
|---------|---------------|
|---------|---------------|
|---------|-----------6---|
|-222-222-|-222-222-5-4-5-|
|-000-000-|-000-000-3---3-|

Breakdown
|------------------------------------------------------|
|------------------------------------------------------|
|------------------------------------------------------|
|------------------------------------------------------|
|-5----8---7----5----3---5---3-5----8---7---5---222222-|
|-3-00-6-0-5-00-3-00-1-0-3-0-1-3-00-6-0-5-0-3-0-000000-|


This is a really easy song, but if i've made any mistakes let me know at chimairakid@lycos.com
Tap to rate this tab
# A B C D E F G H I J K L M N O P Q R S T U V W X Y Z