Song name
# A B C D E F G H I J K L M N O P Q R S T U V W X Y Z

Stan Rogers - Forty-five Years tab

45 Years - Stan Rogers
Capo 3

Intro:
e|---------------------------------------------2---------------------------|
B|-----3p0--1-3--1--------1----------3p0--1-3--3--------3------------------|
G|---0------0-0--0----0-------0----0------0-0--2----2-------2--------------|
D|---------------2--2-------2---------------------0-------0----------------|
A|---------------3------3--------------------------------------------------|
E|-3-----------------------------3-------------2------2--------------------|

e|----------------------------------------------------------------3--------|
B|-----3p0--1-3--1--------1------0h1p0-----------0----------0--------------|
G|----------0-0--0----0-------0--------2p0-----0---0----0-------0-----0----|
D|---------------2--2-------2--------------0h2--------0-------0-----0------|
A|---2-----------3------3--------------------------------------------------|
E|-0------------------------------------------------------3----------------|

Verse:
e|--------------------------------------------------------2--------------2-|
B|---0--------0--------0---0h1----1--------0--------3--------------3-------|
G|-------0--------0--------0----------0--------0--------2-----2--------2---|
D|-----0--------0--------0--h2------2-----------------0-----0--------0-----|
A|-------------------------------------------2-----------------------------|
E|-3--------3--------3----------3--------3--------2--------------2---------|
01 Where the earth shows its bones of wind-broken Stone, 
   and the sea and sky are one, 
02 There's God in the trees, I'm weak in the knees, 
   and the sky is a painful blue.
03 Now the summer city lights will soften the night, 
   till you think that the air is clear,
04 He's got something to say, but I'm so far away, 
   that I don't know who I'm talking to,

09 Well, alone in the lights on stage every night, 
   I've been reaching out to find a friend.
10 Maybe after the show she'll ask me to go home with her 
   for a drink or two.
                                                        
e|-------------------------------------------------2--------------2--------|
B|-------1--------1--------1--------1--------3--------------3--------------|
G|---2-------2--------0--------0--------0--------2-----2--------2-----2----|
D|-0-------2-----------------2--------2--------0-----0--------0-----0------|
A|-----0--------0---2----3--------3----------------------------------------|
E|-------------------------------------2--------------2--------------------|
01 I'm caught out of time, my blood sings with wine, 
   and I'm running naked in the sun. >> 2
03 I'm sitting with friends where forty-five cents, 
   will buy another glass of beer. >> 4

09 Who knows all the words and sings so she's heard, 
   and knows how all the stories end.

e|---------------------------------------------3--------------3------------|
B|---1--------1--------1--------3--------0--------------0------------------|
G|-------2--------0--------0--------2--------0-----0--------0--------------|
D|-----2-----------------2--------0--------0-----0--------0----------------|
A|-0--------0---2----3-----------------------------------------------------|
E|----------------------------2--------3--------------3--------------------|
02 I'd like to look around, but honey all I see is you. >> 3
04 'Cause you just walked in the door, and honey all I see is you. >> 5

10 Now her smile lights her eyes, but honey, all I see is you. >> 5

Chorus:
e|-------------------------------------------------------------------------|
B|--------1--------1---3-1---------0--------1--------0--------0------------|
G|---0--------0--------0-0----2--------0--------0--------0-----------------|
D|-0--------2--------2------2--------0--------2--------0-------------------|
A|------3--------3------------------------3--------------------------------|
E|-------------------------------3-----------------3--------3--------------|
5 And I just want to hold you closer than I've ever held anyone before. >> 6
7 After twenty-three years you'd think I could find a way 
  to let you know somehow, >> 8

e|-------------------------------------------|
B|--------1--------1--------0--------0-------|
G|---0--------0--------0--------0--------0---|
D|-0--------2--------2--------0--------2-----|
A|------3--------3---------------------------|
E|------------------------3--------1---------|
6 You say you've been twice a wife and you're through with life. 
						
e|--------------------------2--------------2-|
B|---1--------1---0---3--------------3-------|
G|-------2----------------2-----2--------2---|
D|-----2----------------0-----0--------0-----|
A|-0--------0--------------------------------|
E|--------------3---2--------------2---------|
6 Ah but honey, what the hell's it for? >> 7

e|---------------------------------------------3---------------------------|
B|---1--------1---0----3--------3--------0---------------0-----------------|
G|-------2-----------------2--------2--------0------0--------0-------------|
D|-----2-----------------0--------0--------0------0--------0---------------|
A|-0--------0--------------------------------------------------------------|
E|--------------3----2--------2--------3---------------3-------------------|
8 I just want to see your smiling face forty-five years from now. 

1st x >> 9, 2nd x >> First two bars of Intro >> repeat 8 >> Intro, end on G. 
Tap to rate this tab
 
# A B C D E F G H I J K L M N O P Q R S T U V W X Y Z