Song name
# A B C D E F G H I J K L M N O P Q R S T U V W X Y Z

Stan Walker - Black Box tab

Ok this is my 1st tab so dt be harsh
my bro listens  this music but i dnt
it was his bday and my band played there so i transpired a tabs for him
so the it is drop d
Stan Walker 
Black Box

E---------------------------]
B---------------------------]
G---------------------------]
D----5- 8--3- 8--3- 8--3 8--]
A----3- x--3- x--1- x--3 x--]
D----------3-  --------3 ---]

Thats the basic chord progression for whole song
but you could play a little lead riff in the chorus like so if u wanted

E----------------------------------------------------]
B----------------------------------------------------]
G---9--9------10--10-------12---12-----9-10-9-7-9-7--]
D-10-10-10--10--10--10--10---10----10----------------]
A----------------------------------------------------]
D----------------------------------------------------]
         v          v               v 
tnx
send comments 2 blaize_matthews@hotmail.com

Tap to rate this tab
# A B C D E F G H I J K L M N O P Q R S T U V W X Y Z