Guitaretab - guitar tabs
Song name
# A B C D E F G H I J K L M N O P Q R S T U V W X Y Z

Stance Punks - Knee Knee tab

Stance Punks  Mony Mony Mony(モニー・モニー・モニー)
Howling Idol
Tab by: Elias Marin
Dudas y comentarios: eliasstaticx@hotmail.com

INTRO
e- ----------------------|
B------------------------|
G-----7-7-11-11-11-9-9-9-|
D-7-7-7-7-11-11-11-9-9-9-|(X2)
A-7-7-5-5-9 -9 -9 -7-7-7-|
E-5-5--------------------|

e- ------------------------|
B--------------------------|
G-------7-7-7--------------|
D-7-7-7-7-7-7--------------|(x4)
A-7-7-7-5-5-5--------------|
E-5-5-5--------------------|

Verso
e- ---------------------------------------|
B-----------------------------------------|
G------9----11-------7--------------9-----|
D-7----9----11-------7----7----9----9-----|(x2)
A-7----7-----9-------5----7----9----7-----|
E-5-----------------------5----7----------|

Pre-Coro
e- --------------------------------------------------|
B----------------------------------------------------|
G-------9----------11---------9----------------------|
D-7-----9-----11---11-11---7--9--7-0-7-0-7-7-0-7-----|
A-7-----7-----11----9-11---7--7--7-0-7-0-7-7-0-7-----|
E-5------------9-------9---5-----5-0-5-0-5-5-0-5-----|

e- ------------------------------------------------|
B--------------------------------------------------|
G-------9----------11-----------------9------------|
D-7-----9-----11---11-11---7--9--11---9------------|
A-7-----7-----11----9-11---7--9--11---7------------|
E-5------------9-------9---5--7---9----------------|

Coro
e- -------------------------------------------|
B---------------------------------------------|
G------9--------------------------------------|
D-7----9-----7-----4---7--9----7-0-7--7-7-0-7-|
A-7----7-----7-----4---7--9----7-0-7--7-7-0-7-|
E-5----------5-----2---5--7----5-0-5--5-5-0-5-|


e- -------------------------------------------|
B---------------------------------------------|
G------9--------------------------------------|
D-7----9-----7-----4---7--9----7--------------|
A-7----7-----7-----4---7--9----7--------------|
E-5----------5-----2---5--7----5--------------|

Puente
e- -----------------|
B-------------------|
G----7-9--11--------|
D-7--7-9--11--------|
A-7--5-7---9--------|
E-5-----------------|
[ Tab from: http://www.guitaretab.com/s/stance-punks/76336.html ]
Solo
e- --------------------------------|
B-----5-5----5----5--------------7-|
G---7b----7b---7b--x3---7-9-10b-7-|
D----------------------------------|
A----------------------------------|
E----------------------------------|

Verso
e- ---------------------------------------|
B-----------------------------------------|
G------9----11-------7--------------9-----|
D-7----9----11-------7----7----9----9-----|(x2)
A-7----7-----9-------5----7----9----7-----|
E-5-----------------------5----7----------|

Pre-Coro
e- ------------------------------------------------|
B--------------------------------------------------|
G-------9----------11---------9--------------------|
D-7-----9-----11---11-11---7--9--7-0-7-0-7-7-0-7---|
A-7-----7-----11----9-11---7--7--7-0-7-0-7-7-0-7---|
E-5------------9-------9---5-----5-0-5-0-5-5-0-5---|

e- ------------------------------------------------|
B--------------------------------------------------|
G-------9----------11-----------------9------------|
D-7-----9-----11---11-11---7--9--11---9------------|
A-7-----7-----11----9-11---7--9--11---7------------|
E-5------------9-------9---5--7---9----------------|


Coro
e- -------------------------------------------|
B---------------------------------------------|
G------9--------------------------------------|
D-7----9-----7-----4---7--9----7-0-7--7-7-0-7-|
A-7----7-----7-----4---7--9----7-0-7--7-7-0-7-|
E-5----------5-----2---5--7----5-0-5--5-5-0-5-|


e- -------------------------------------------|
B---------------------------------------------|
G------9--------------------------------------|
D-7----9-----7-----4---7--9----7--------------|
A-7----7-----7-----4---7--9----7--------------|
E-5----------5-----2---5--7----5--------------|

e- -------------------------------------------|
B---------------------------------------------|
G------9--------------------------------------|
D-7----9-----7-----4---7--9----7-0-7--7-7-0-7-|
A-7----7-----7-----4---7--9----7-0-7--7-7-0-7-|
E-5----------5-----2---5--7----5-0-5--5-5-0-5-|

e- -------------------------------------------------------|
B---------------------------------------------------------|
G------9--------------------------------------------------|
D-7----9-----7-----4---7--9----7-9---7-9---7-0-7--7-7-0-7-|
A-7----7-----7-----4---7--9----7-9---7-9---7-0-7--7-7-0-7-|
E-5----------5-----2---5--7----5-7---5-7---5-0-5--5-5-0-5-|


e- ------------------------|
B--------------------------|
G-------7-7-7-----7--------|
D-7-7-7-7-7-7-X3--7-7------|
A-7-7-7-5-5-5-----5-7------|
E-5-5-5-------------5------|


b Bend
h Hammer
Related for Knee Knee tab