Guitaretab - guitar tabs
Song name
# A B C D E F G H I J K L M N O P Q R S T U V W X Y Z

Stance Punks - No Boy Bo Cry tab

Stance Punks : No Boy No Cry
Tabbed by    : Hariz05 (myspace.com/hariz05)
Tuning       : Standard (EADGBe)

I tabbed this base on Naruto opening theme song.
Shorter than the full version with out solo.

[INTRO]
e|-------|
B|-------|
G|---4---|
D|-5-4-2-| (*let each note ring)
A|-5-2-2-|
E|-3---0-|
   
   D
e|----------------------------|
B|----------------------------|
G|-7-7777-7-7777-7-7777-7-7777|
D|-7-7777-7-7777-7-7777-7-7777|
A|-5-5555-5-5555-5-5555-5-5555|
E|----------------------------|
  “No boy, no cry! 1 2 3 Go...”

[VERSE]
   
   G      D      Em      Bm
e|----------------------------|
B|----------------------------|
G|--------7------9------------|
D|-5------7------9------9-----|
A|-5-x16--5-x16--7-x16--9-x16-|
E|-3--------------------7-----|
   “Shounen yo kiitekure...”

   C       G    Em    C     D     G
e|-----------------------------------|
B|-----------------------------------|
G|--------------9-----5----7---------|
D|-10------5----9-----5----7----5----|
A|-10-x16--5-x8—7-x8--3-x8—5-x8-5-x8-|
E|--8------3--------------------3----|
   “Ashitanante...”

[RIFF]

  D       Em     D
e|---------------------|
B|---------------------|
G|-7------9------7-----|
D|-7-x32—-9-x16--7-x16-|
A|-5------7------5-----|
E|---------------------|
  “Fuan ni yume wo...”

   C       G    Em    A     D     
e|--------------------------------|
B|--------------------------------|
G|--------------9-----------7-----|
D|-10------5----9-----7-----7-----|
A|-10-x16--5-x8—7-x8--7-x16—5-x16-|
E|--8------3----------5-----------|
   “Hhounenyo kokoro...”
[ Tab from: http://www.guitaretab.com/s/stance-punks/96676.html ]
[CHORUS]
  
   G      Em     C      D
e|----------------------------|
B|----------------------------|
G|---------------5------7-----|
D|-5------2------5-x16—-7-x16-|
A|-5-x16—-2-x16—-3------5-----|
E|-3------0-------------------|
  “Subete no wakamono...”

   G      Em     C     D     G
e|---------------------------------|
B|---------------------------------|
G|---------------5-----7-----------|
D|-5------2------5-x8—-7-x8—-5-----|
A|-5-x16—-2-x16—-3-----5-----5-x16-|
E|-3------0------------------3-----|
   “Subete no wakamono...”

2nd time:

   G      Em     C      D
e|----------------------------|
B|----------------------------|
G|---------------5------7-----|
D|-5------2------5-x16—-7-x16-|
A|-5-x16—-2-x16—-3------5-----|
E|-3------0-------------------|
  “Subete no wakamono...”

   G      Em     C     D
e|--------------------------|
B|--------------------------|
G|---------------5-----7----|
D|-5------2------5-x8—-7-x8—|
A|-5-x16—-2-x16—-3-----5----|
E|-3------0-----------------|
   “Subete no wakamono...”

End with this:

e|----------|
B|----------|
G|-5-4------|
D|-5-4-7-5*-|
A|-3-2-7-5--|
E|-----5-3--|

Don't hesitate to correct me: hariz05@gmail.com

[Lyrics]

No boy! No cry! 1 2 3 Go! 

Shounen yo kiitekure ningen nante taishitamonjanaisa 
Ashitanante mouiranaikara nigitta kobushi wo kakusu nayo 

Fuan ni yume wo uritobasu hodo mada 
Oi borechainaidaro 
Hhounenyo kokoro no jyuu no 
Hikikane wo hikeru no kimidake sa

Subete no wakamono wa itta doushiyo mo nakukudaranai 
kono subarashii sekai ni tatta ima ikiteirukara 
subete no wakamono wa itta subete no hontou to uso wo 
kimeshite wasurete shimawanai youni 

Subete no wakamono wa itta shinuniwa wakasugirudarou 
shireketa tsura ga narannderu karappo no konomachi de 
subete no wakamono wa itta kaze no nai kono yoru ni 
nanika wo kaeyoutoshiterukara
Related for No Boy Bo Cry tab