Song name
# A B C D E F G H I J K L M N O P Q R S T U V W X Y Z

Standard 7 A - No Patience tab

G1 Intro

--------------------------------
----0-------0-------0-------0---
--0---0---0---0---0---0---0---0-
--------------------------------   x6
----------------2-------3-------
3-------0-----------------------

G2 Intro - Waits after G1 finishes 2x

--------------------------------
--------------------------------
--------------------------------
--------------------------------  - Palm Muted
----------------2-2-2-2-3-3-3-3-
3-3-3-3-0-0-0-0-----------------

G1 & G2

--------------------------------
--------------------------------
--------------------------------
0-0-0-0-0-0-0-0-2-2-2-2-2-2-2-2-   x4
2-2-2-2-0-0-0-0-2-2-2-2-3-3-3-3-
3-3-3-3-0-0-0-0-0-0-0-0-0-0-0-0-

Chorus

0-0-0-0-0-0-0-0-0-0-0-0-0-0-0-0-
0-0-0-0-0-0-0-0-0-0-0-0-0-0-0-0-
0-0-0-0-0-0-0-0-0-0-0-0-0-0-0-0-
0-0-0-0-0-0-0-0-2-2-2-2-2-2-2-2-   x4
2-2-2-2-0-0-0-0-2-2-2-2-3-3-3-3-
3-3-3-3-0-0-0-0-0-0-0-0-0-0-0-0-

And it just playes the same notes through the rest of the song...
Tap to rate this tab
 
# A B C D E F G H I J K L M N O P Q R S T U V W X Y Z