Song name
# A B C D E F G H I J K L M N O P Q R S T U V W X Y Z

Standing On Three Legs - Untitled tab

Help us improve GuitareTab! Take a short survey!
Hey was up people. This song is so coooool! It's written by like the greatest band ever (standing on three 
Well anyways i'll shut up now and show you the song. thanx for looking at it.


Intro
E---------------------------------------------------------------Repeat-------------------------|
B---------------------------------------------------------------this     ----------------------|
G----------------------------------------------7---------------four    ------------------------|
D-------------6----6--------------6---------7---7------7-----times  --------2--2--2-2----------|
A----------6---------6----------6---------5-----------7---7---         --------2--2--2-2-------|
E--------4--------------4-----4----------------------5---------          --------0--0--0-0-----|

E---------------------------------------|
B---------------------------------------|
G-----------Repeat this four times too--|
D-----5---7-----------------------------|
A-----5---7-----------------------------|
E------3---5----------------------------|

Verse
E--------------------------------------------------|
B--------------------------------------------------|
G--------------------------------------------------|           Repeat this (muffled) four times
D----------2--2--2-2----5--5----7--7---------------|
A----------2--2--2-2----5--5----7--7---------------|
E----------0--0--0-0----3--3----5--5---------------|


chourus
E--------------------------------------------|
B--------------------------------------------|
G------------------------9--9----------------|
D-------6--6--6-6------9--9----9--9----------|       Repeat this four times.
A-------6--6--6-6------7--7----9--9----------|
E--------4--4--4-4---------------7--7--------|


Well there you have it. hope you like it. PEACE!
Related for Untitled tab