Song name
# A B C D E F G H I J K L M N O P Q R S T U V W X Y Z

Staple - The Songwriter tab

Staple
The Songwriter
Tabbed by U B the band
Tuning Drop C

Legend:
p-pull off           /-slide up
h-hammer on          pm-palm mute
x-scratch            (x#) or |x#|-chord/note amount

Intro: (distorted)                     -|
D|-------------------------------------||
A|-------------------------------------||play
F|-------------------------------------||3
C|--8p7p0--5h7p0--5p3p0--1h3--1p0--xx--||times
G|--8p7p0--5h7p0--5p3p0--1h3--1p0--xx--||
C|--8p7p0--5h7p0--5p3p0--1h3--1p0--xx--||
                                       -|
Intro Continued
D|-------------------------------------|
A|------------------------7----7----7--|
F|--3--3--x-----5/77777b--7----7----7--|
C|--3--3--x--3--x-xxxxx--------0----0--|
G|--1--1--x--3--3/55555b---------------|
C|--------x--3-------------------------|

Verse 1: (distorted)                   -|
D|-------------------------------------||
A|-------------------------------------||
F|--1414141414141414-1111111111111111--||
C|---x-x-x-x-x-x-x-x--x-x-x-x-x-x-x-x--||
G|--1212121212121212--9-9-9-9-9-9-9-9--||
C|-------------------------------------||
                                        |
D|-------------------------------------||
A|-------------------------------------||
F|--10101010101010101010-----------10--||
C|---x-x-x-x-x-x-x-x-x-x--0-0-0-0---x--||
G|---8-8-8-8-8-8-8-8-8-8--0-0-0-0---8--||
C|------------------------0-0-0-0------||play
                          pmpmpmpm      |2
                                        |times
D|-------------------------------------||
A|-------------------------------------||
F|--1414141414141414-1111111111111111--||
C|---x-x-x-x-x-x-x-x--x-x-x-x-x-x-x-x--||
G|--1212121212121212--9-9-9-9-9-9-9-9--||
C|-------------------------------------||
                                        |
D|-------------------------------------||
A|-------------------------------------||
F|--10101010101010101010-----------10--||
C|---8-8-8-8-8-8-8-8-8-8--0-0-0-0---8--||
G|---8-8-8-8-8-8-8-8-8-8--0-0-0-0---8--||
C|------------------------0-0-0-0---8--||
                          pmpmpmpm     -|
Pre-Chorus: (clean)
D|-------------------------------------|
A|--7-7-xxxx-7-7-xxxx-6-6-xxxx-6-6-xxxx|
F|--7-7-xxxx-7-7-xxxx-7-7-xxxx-7-7-xxxx|
C|--0-0-xxxx-0-0-xxxx-0-0-xxxx-0-0-xxxx|
G|-------------------------------------|
C|-------------------------------------|

D|-------------------------------------|
A|--7-7xxxx7-7xxxx--3-3-3-3---3-3-3-3--|
F|--7-7xxxx7-7xxxx--0-0-0-0---3-3-3-3--|
C|--0-0xxxx0-0xxxx--0-0-0-0---0-0-0-0--|
G|-------------------------------------|
C|-------------------------------------|

Chorus: (distorted)
D|-------------------------------------|
A|------10-----------------10----------|
F|------13-----------------13----------|
C|--0-0-----8p0-7p0-5--0-0-----8--7-8--|
G|--0-0-----8p0-7p0-5--0-0-----8--7-8--|
C|--0-0-----8p0-7p0-5--0-0-----8--7-8--|

D|-------------------------------------|
A|------10-----------------------------|
F|------13-------------------7777/8888-|
C|--0-0-----8p0-7p0-5--3-3-3-xxxx-xxxx-|
G|--0-0-----8p0-7p0-5--1-1-3-5555/6666-|
C|--0-0-----8p0-7p0-5------3-----------|

D|-------------------------------------|
A|------10-----------------10----------|
F|------13-----------------13----------|
C|--0-0-----8p0-7p0-5--0-0-----8--7-8--|
G|--0-0-----8p0-7p0-5--0-0-----8--7-8--|
C|--0-0-----8p0-7p0-5--0-0-----8--7-8--|

D|-------------------------------------|
A|------10-----------------------------|
F|------13-------------------77777b(7)-|
C|--0-0-----8p0-7p0-5--3-3-3-xxxxx-(x)-|
G|--0-0-----8p0-7p0-5--1-1-3-55555b(5)-|
C|--0-0-----8p0-7p0-5------3-----------|

D|-------------------------------------|
A|--7----7----7------------77777777----|
F|--7----7----7------------77777777----|
C|-------0----0------------00000000----|
G|-------------------------------------|
C|-------------------------------------|

Verse 2: (distorted)                   -|
D|-------------------------------------||
A|-------------------------------------||
F|--1414141414141414-1111111111111111--||
C|---x-x-x-x-x-x-x-x--x-x-x-x-x-x-x-x--||
G|--1212121212121212--9-9-9-9-9-9-9-9--||
C|-------------------------------------||
                                        |
D|-------------------------------------||
A|-------------------------------------||
F|--10101010101010101010-----------10--||
C|---x-x-x-x-x-x-x-x-x-x--0-0-0-0---x--||
G|---8-8-8-8-8-8-8-8-8-8--0-0-0-0---8--||
C|------------------------0-0-0-0------||play
                          pmpmpmpm      |2
                                        |times
D|-------------------------------------||
A|-------------------------------------||
F|--1414141414141414-1111111111111111--||
C|---x-x-x-x-x-x-x-x--x-x-x-x-x-x-x-x--||
G|--1212121212121212--9-9-9-9-9-9-9-9--||
C|-------------------------------------||
                                        |
D|-------------------------------------||
A|-------------------------------------||
F|--10101010101010101010-----------10--||
C|---8-8-8-8-8-8-8-8-8-8--0-0-0-0---8--||
G|---8-8-8-8-8-8-8-8-8-8--0-0-0-0---8--||
C|------------------------0-0-0-0---8--||
                          pmpmpmpm     -|

Chorus 2: (distorted)
D|-------------------------------------|
A|------10-----------------10----------|
F|------13-----------------13----------|
C|--0-0-----8p0-7p0-5--0-0-----8--7-8--|
G|--0-0-----8p0-7p0-5--0-0-----8--7-8--|
C|--0-0-----8p0-7p0-5--0-0-----8--7-8--|

D|-------------------------------------|
A|------10-----------------------------|
F|------13-------------------7777/8888-|
C|--0-0-----8p0-7p0-5--3-3-3-xxxx-xxxx-|
G|--0-0-----8p0-7p0-5--1-1-3-5555/6666-|
C|--0-0-----8p0-7p0-5------3-----------|

D|-------------------------------------|
A|------10-----------------10----------|
F|------13-----------------13----------|
C|--0-0-----8p0-7p0-5--0-0-----8--7-8--|
G|--0-0-----8p0-7p0-5--0-0-----8--7-8--|
C|--0-0-----8p0-7p0-5--0-0-----8--7-8--|

D|-------------------------------------|
A|------10-----------------------------|
F|------13----------------------8(x16)-|
C|--0-0-----8p0-7p0-5--8-8--10--x------|
G|--0-0-----8p0-7p0-5--8-8--10--6------|
C|--0-0-----8p0-7p0-5--8-8--10---------|

Bridge: (distorted)
D|----10|   |---------10|   |-/13|  |--|
A|----10|x20|---------10|x12|-/13|x8|--|
F|-------------------------------------|
C|-------------------------------------|
G|--0---------00-0-00------------------|
C|--0---------00-0-00------------------|

D|----------10|   |---------10|   |----|
A|----------10|x20|---------10|x12|----|
F|-------------------------------------|
C|-------------------------------------|
G|--00-0-00---------00-0-00------------|
C|--00-0-00---------00-0-00------------|

D|--/13131313131313131313131313131313--|
A|--/13131313131313131313131313131313--|
F|-------------------------------------|
C|-------------------------------------|
G|-------------------------------------|
C|-------------------------------------|

Bridge Continued:
D|-------------------------------------|
A|----10(x14)----------10(x14)---------|
F|-------------------------------------|
C|-------------------------------------|
G|--00---------------00----------------|
C|--00---------------00----------------|
    pm               pm

D|-------------------------------------|
A|----10(x14)----------10(x10)-10b-----|
F|-------------------------------------|
C|-------------------------------------|
G|--00---------------00----------------|
C|--00---------------00----------------|
    pm               pm

Bridge Continued:                      -|
D|-------------------------------------||
A|-----10101010----101010101010-10b----||play
F|-------------------------------------||4
C|-------------------------------------||times
G|--00----------00---------------------||
C|--00----------00---------------------||
    pm          pm                     -|

Bridge Continued:                      -|
D|-------------------------------------||
A|-----10101010----1010101010101010----||play
F|-----13131313----1313131313131313----||3
C|-------------------------------------||times
G|--00----------00---------------------||
C|--00----------00---------------------||
    pm          pm                     -|

End of Bridge:
D|-------------------------------------|
A|-------------------------------------|
F|-------------------------------------|
C|--8---8--------7---7-----8-----------|
G|--8---8--------7---7-----8-----------|
C|--8---8--------7---7-----8-----------|

Outro: (distorted)                     -|
D|-------------------------------------||
A|-------------------------------------||
F|--1414141414141414-1111111111111111--||
C|---x-x-x-x-x-x-x-x--x-x-x-x-x-x-x-x--||
G|--1212121212121212--9-9-9-9-9-9-9-9--||
C|-------------------------------------||
                                        |
D|-------------------------------------||
A|-------------------------------------||
F|--10101010101010101010-----------10--||
C|---x-x-x-x-x-x-x-x-x-x--0-0-0-0---x--||
G|---8-8-8-8-8-8-8-8-8-8--0-0-0-0---8--||
C|------------------------0-0-0-0------||play
                          pmpmpmpm      |2
                                        |times
D|-------------------------------------||
A|-------------------------------------||
F|--1414141414141414-1111111111111111--||
C|---x-x-x-x-x-x-x-x--x-x-x-x-x-x-x-x--||
G|--1212121212121212--9-9-9-9-9-9-9-9--||
C|-------------------------------------||
                                        |
D|-------------------------------------||
A|-------------------------------------||
F|--10101010101010101010-----------10--||
C|---8-8-8-8-8-8-8-8-8-8--0-0-0-0---8--||
G|---8-8-8-8-8-8-8-8-8-8--0-0-0-0---8--||
C|------------------------0-0-0-0---8--||
                          pmpmpmpm     -|

Outro Continued:
D|-------------------------------------|
A|-------------------------------------|
F|-------------------------------------|
C|--8-----7-----8-----7-----8-----7----|
G|--8-----7-----8-----7-----8-----7----|
C|--8-----7-----8-----7-----8-----7----|

D|-------------------------------------|
A|-------------------------------------|
F|-------------------------------------|
C|--8p7p0--5h7p0--5p3p0--1h3--1p0--xx--|
G|--8p7p0--5h7p0--5p3p0--1h3--1p0--xx--|
C|--8p7p0--5h7p0--5p3p0--1h3--1p0--xx--|

D|-------------------------------------|
A|-------------------------------------|
F|-------------------------------------|
C|--0----------------------------------|
G|--0----------------------------------|
C|--0----------------------------------|

Finished!
Tap to rate this tab
 
# A B C D E F G H I J K L M N O P Q R S T U V W X Y Z