Song name
# A B C D E F G H I J K L M N O P Q R S T U V W X Y Z

Staple - Escape The Fact tab

Staple (2002)
Escape The Fact
Tabbed by U B the band
Tuning Drop C

Legend
\-slide up
/-slide down
b-bend

Intro: (clean)                                 _
D|--------------------------------------------| |
A|--------------------------------------------| |
F|-------7----7---7/8-88------7----7----7\5---| |
C|--0000---00---0--------0000---00---0--------| |
G|--------------------------------------------| |
C|--------------------------------------------| |play
                                                |2
D|--------------------------------------------| |times
A|--------------------------------------------| |
F|-------7----7---7/8-88------7----7---7-7\5--| |
C|--0000---00---0--------0000---00---0--------| |
G|--------------------------------------------| |
C|--------------------------------------------|_|

Intro continued (clean)                        _
D|--------------------------------------------| |
A|--------------------------------------------| |play
F|--------------------------------------------| |2
C|------0-------------------------------------| |times
G|--00000-----00000-----00000-----00----------| |
C|--00000-6b--00000-6b--00000-6b--00--3-3--1--|_|
    pmpmpm    pmpmpm    pmpmpm    pm

Intro continued (distorted)                    _
D|--------------------------------------------| |
A|--------------------------------------------| |play
F|--------------------------------------------| |6
C|--------------------------------------------| |times
G|--00000-6---00000-6---00000-6---00--3-3--1--| |
C|--00000-6---00000-6---00000-6---00--3-3--1--|_|
    pmpmpm    pmpmpm    pmpmpm    pm

Whole tab coming soon
Tap to rate this tab
# A B C D E F G H I J K L M N O P Q R S T U V W X Y Z