Guitaretab - guitar tabs
Song name
# A B C D E F G H I J K L M N O P Q R S T U V W X Y Z

Staple - Black Blue And Gold tab

Staple (Of Truth And Reconciliation)
Black, Blue And Gold
Tabbed By U B the band
Tuning Drop C

Legend:
p-pull off
h-hammer on
(x#)-play number of chord/note

Stand Up Bass Intro:
D|-------------------------------------------|
A|-------------------------------------------|
F|-------------------------------------------|
C|-------------------------------------------|
G|--2----------------------------------------|
C|----------------0-------------5------------|

Intro: (clean)
D|-------------------------------------------|
A|-------------------------------------------|
F|----------7-7-7-7-7-7---------7-7-7-7-7-7--|
C|----------9-9-9-9-9-9---------9-9-9-9-9-9--|
G|--7-9p7h9-------------7-9p7h9--------------|
C|--7-9p7h9-------------7-9p7h9--------------|

Verse 1:  (clean)                            -|
D|-------------------------------------------||
A|-------------------------------------------||
F|----------7-7-7-7-7-7---------7-7-7-7-7-7--||
C|----------9-9-9-9-9-9---------9-9-9-9-9-9--||
G|--7-9p7h9-------------7-9p7h9--------------||
C|--7-9p7h9-------------7-9p7h9--------------||play
                                              |2
D|-------------------------------------------||times
A|-------------------------------------------||
F|----------7-7-7-7-7-7---------7-7-7-7-7-7--||
C|----------9-9-9-9-9-9---------9-9-9-9-9-9--||
G|--9-7-7-7-------------7-5-5-5--------------||
C|--9-7-7-7-------------7-5-5-5--------------||
                                             -|

Chorus: (clean)                              -|
D|-------------------------------------|      |
A|-----------0--------0--------0-------|play  |
F|--------3-----3--------3--------3-3--|2     |
C|-----4-----------4--------4----------|times |
G|--2----------------------------------|      |
C|-------------------------------------|      |
                                              |
D|-------------------------------------|      |
A|-----------0--------0--------0-------|      |play
F|--------3-----------------------3-3--|      |2
C|-----2--------2--------2-------------|      |times
G|--0----------------------------------|      |
C|-------------------------------------|      |
                                              |
D|-------------------------------------|      |
A|-----------0--------0--------0-------|      |
F|--------3-----3--------3--------3-3--|      |
C|-----------------4--------4----------|      |
G|-------------------------------------|      |
C|--5----------------------------------|      |
                                             -|

Verse 2: (clean)                             -|
D|-------------------------------------------||
A|-------------------------------------------||
F|----------7-7-7-7-7-7---------7-7-7-7-7-7--||
C|----------9-9-9-9-9-9---------9-9-9-9-9-9--||
G|--7-9p7h9-------------7-9p7h9--------------||
C|--7-9p7h9-------------7-9p7h9--------------||play
                                              |2
D|-------------------------------------------||times
A|-------------------------------------------||
F|----------7-7-7-7-7-7---------7-7-7-7-7-7--||
C|----------9-9-9-9-9-9---------9-9-9-9-9-9--||
G|--9-7-7-7-------------7-5-5-5--------------||
C|--9-7-7-7-------------7-5-5-5--------------||
                                             -|
[ Tab from: http://www.guitaretab.com/s/staple/101998.html ]
Chorus: (clean)                              -|
D|-------------------------------------|      |
A|-----------0--------0--------0-------|play  |
F|--------3-----3--------3--------3-3--|2     |
C|-----4-----------4--------4----------|times |
G|--2----------------------------------|      |
C|-------------------------------------|      |
                                              |
D|-------------------------------------|      |
A|-----------0--------0--------0-------|      |play
F|--------3-----------------------3-3--|      |2
C|-----2--------2--------2-------------|      |times
G|--0----------------------------------|      |
C|-------------------------------------|      |
                                              |
D|-------------------------------------|      |
A|-----------0--------0--------0-------|      |
F|--------3-----3--------3--------3-3--|      |
C|-----------------4--------4----------|      |
G|-------------------------------------|      |
C|--5----------------------------------|      |
                                             -|

Bridge/solo:
D|--------------------------------------------|
A|---------17(x4)-19(x4)-15(x8)-14(x4)-12(x3)-|play
F|--14(x8)--x------x------x------x------x-----|5
C|---------14(x4)-16(x4)-12(x8)-11(x4)--9(x3)-|times
G|--------------------------------------------|
C|--------------------------------------------|

After Bridge: (clean)
D|-------------------------------------------|
A|-------------------------------------------|
F|----------7-7-7-7-7-7---------7-7-7-7-7-7--|
C|----------9-9-9-9-9-9---------9-9-9-9-9-9--|
G|--7-9p7h9-------------7-9p7h9--------------|
C|--7-9p7h9-------------7-9p7h9--------------|

Chorus: (low distortion)                     -|
D|-------------------------------------|      |
A|-----------0--------0--------0-------|play  |
F|--------3-----3--------3--------3-3--|2     |
C|-----4-----------4--------4----------|times |
G|--2----------------------------------|      |
C|-------------------------------------|      |
                                              |
D|-------------------------------------|      |
A|-----------0--------0--------0-------|      |play
F|--------3-----------------------3-3--|      |2
C|-----2--------2--------2-------------|      |times
G|--0----------------------------------|      |
C|-------------------------------------|      |
                                              |
D|-------------------------------------|      |
A|-----------0--------0--------0-------|      |
F|--------3-----3--------3--------3-3--|      |
C|-----------------4--------4----------|      |
G|-------------------------------------|      |
C|--5----------------------------------|      |
                                             -|

After Chorus: (clean with delay)
D|--------------------------------------------|
A|--------0----------0----------0----------0--|
F|--------7----------7----------7----------7--|
C|--9--9--9----9--9--9-------9--9-------9--9--|
G|--9----------9----------7----------5--------|
C|--9----------9----------7----------5--------|

Outro: (clean)                               -|
D|-------------------------------------------||
A|-------------------------------------------||
F|----------7-7-7-7-7-7---------7-7-7-7-7-7--||
C|----------9-9-9-9-9-9---------9-9-9-9-9-9--||
G|--7-9p7h9-------------7-9p7h9--------------||
C|--7-9p7h9-------------7-9p7h9--------------||play
                                              |2
D|-------------------------------------------||times
A|-------------------------------------------||
F|----------7-7-7-7-7-7---------7-7-7-7-7-7--||
C|----------9-9-9-9-9-9---------9-9-9-9-9-9--||
G|--9-7-7-7-------------7-5-5-5--------------||
C|--9-7-7-7-------------7-5-5-5--------------||
                                             -|
Outro Continued: (volume fades)
D|--------------------------------------------|
A|--------0----------0----------0----------0--|
F|--------7----------7----------7----------7--|
C|--9--9--9----9--9--9-------9--9-------9--9--|
G|--9----------9----------7----------5--------|
C|--9----------9----------7----------5--------|

Finished!
Related for Black Blue And Gold tab
Advertisement will be closed in 10 seconds