Song name
# A B C D E F G H I J K L M N O P Q R S T U V W X Y Z

Staple - Dictatorship Vs Democracy tab

Help us improve GuitareTab! Take a short survey!
Staple
Dictatorship vs. Democracy (DVD)
Tabbed By U B the band
Tuning Drop C

Legend
x-scratch              p-pull Off             (#)-suggestion
h-hammer On            pm-palm Mute           \\-pick Slide (down)
\-slide Down           /-slide Up

Intro: 00:00
F|-----------------------------------------------------------------|
A|-----------------------------------------------------------------|
D|-------7---5---7---8---7------x--x---------7---5---7---8---7-----|
C|-------0---0---0---0---0------x--x---------0---0---0---0---0-----|
G|--0---------------------------x--x----0--------------------------|
C|--0---------------------------x--x----0--------------------------|

Verse 1: 00:05
D|-------10-10-10-10---------------------10-10-10-10---------------|
A|-------11-11-11-11---------------------11-11-11-11---------------|
F|-----------------------------------------------------------------|
C|--0-x-x------------0h5p0-8p7-0h8--0-x-x------------0h5p0-8p7-0h8-|
G|--0-x-x------------0h5p0-8p7-0h8--0-x-x------------0h5p0-8p7-0h8-|
C|--0-x-x------------0h5p0-8p7-0h8--0-x-x------------0h5p0-8p7-0h8-|

Verse 1: 00:10
D|-------10-10-10-10-----------------------------------------------|
A|-------11-11-11-11-----------------------------------------------|
F|--------------------------------------0-------0-------0-------0--|
C|--0-x-x------------0h5p0-8p7-0h8-0-0--0--0-0--0--0-0--0--0-0--0--|
G|--0-x-x------------0h5p0-8p7-0h8-0-0--0--0-0--0--0-0--0--0-0--0--|
C|--0-x-x------------0h5p0-8p7-0h8-0-0--0--0-0--0--0-0--0--0-0--0--|
                                   pmpm    pmpm    pmpm    pmpm
Verse 1: 00:15
D|-------10-10-10-10---------------------10-10-10-10---------------|
A|-------11-11-11-11---------------------11-11-11-11---------------|
F|-----------------------------------------------------------------|
C|--0-x-x------------0h5p0-8p7-0h8--0-x-x------------0h5p0-8p7-0h8-|
G|--0-x-x------------0h5p0-8p7-0h8--0-x-x------------0h5p0-8p7-0h8-|
C|--0-x-x------------0h5p0-8p7-0h8--0-x-x------------0h5p0-8p7-0h8-|

Verse 1: 00:20
D|-------10-10-10-10-----------------------------------------------|
A|-------11-11-11-11-----------------------------------------------|
F|--------------------------------------0-------0-------0-------0--|
C|--0-x-x------------0h5p0-8p7-0h8-0-0--0--0-0--0--0-0--0--0-0--0--|
G|--0-x-x------------0h5p0-8p7-0h8-0-0--0--0-0--0--0-0--0--0-0--0--|
C|--0-x-x------------0h5p0-8p7-0h8-0-0--0--0-0--0--0-0--0--0-0--0--|
                                   pmpm    pmpm    pmpm    pmpm

Pre-Chorus: 00:25
D|--0--------------------------------------------------------------|
A|--0------------------------------------Pick slide down the neck--|
F|--0------------------------------------starting at the 12th fret-|
C|--0------------------------------------(12)\\\\\\\\\\\\\\\\\-----|
G|--0------------------------------------(12)\\\\\\\\\\\\\\\\\-----|
C|--0------------------------------------(12)\\\\\\\\\\\\\\\\\-----|

Chorus: 00:30
D|-----------------------------------------------------------------|
A|-----------------------------------------------------------------|
F|-11--11--11-/12\11--11--11--12--12/15-15--15--15--14--14--14--14-|
C|--0---0---0---0--0---0---0---0---0--0--0---0---0---0---0---0---0-|
G|--9---9---9-/10\-9---9---9--10--10/13-13--13--13--12--12--12--12-|
C|--0---0---0--(0)(0)--0---0---0--(0)(0)-0---0---0---0---0---0---0-|

Chorus: 00:35
D|-----------------------------------------------------------------|
A|-----------------------------------------------------------------|
F|-----------------------------------------------------------------|
C|--12---10h13---0---x--x----12\-----3---3---3-3----5---5---5-5----|
G|--12---10h12---0---x--x----12\-----3---3---3-3----5---5---5-5----|
C|--12---10h12---0---x--x----12\-----3---3---3-3----5---5---5-5----|

Chorus: 00:40
D|-----------------------------------------------------------------|
A|-----------------------------------------------------------------|
F|-11--11--11-/12\11--11--11--12--12/15-15--15--15--14--14--14--14-|
C|--0---0---0---0--0---0---0---0---0--0--0---0---0---0---0---0---0-|
G|--9---9---9-/10\-9---9---9--10--10/13-13--13--13--12--12--12--12-|
C|--0---0---0--(0)(0)--0---0---0--(0)(0)-0---0---0---0---0---0---0-|

Chorus: 00:45
D|-----------------------------------------------------------------|
A|-----------------------------------------------------------------|
F|-----------------------------------------------------------------|
C|--12---10h13---0---x--x----12\-----3---3---3-3----5---5---5-5----|
G|--12---10h12---0---x--x----12\-----3---3---3-3----5---5---5-5----|
C|--12---10h12---0---x--x----12\-----3---3---3-3----5---5---5-5----|

Retro: 00:50
F|-----------------------------------------------------------------|
A|-----------------------------------------------------------------|
D|-------7---5---7---8---7------x--x---------7---5---7---8---7-----|
C|-------0---0---0---0---0------x--x---------0---0---0---0---0-----|
G|--0---------------------------x--x----0--------------------------|
C|--0---------------------------x--x----0--------------------------|

Verse 1: 00:55
D|-------10-10-10-10---------------------10-10-10-10---------------|
A|-------11-11-11-11---------------------11-11-11-11---------------|
F|-----------------------------------------------------------------|
C|--0-x-x------------0h5p0-8p7-0h8--0-x-x------------0h5p0-8p7-0h8-|
G|--0-x-x------------0h5p0-8p7-0h8--0-x-x------------0h5p0-8p7-0h8-|
C|--0-x-x------------0h5p0-8p7-0h8--0-x-x------------0h5p0-8p7-0h8-|

Verse 1: 01:00
D|-------10-10-10-10-----------------------------------------------|
A|-------11-11-11-11-----------------------------------------------|
F|--------------------------------------0-------0-------0-------0--|
C|--0-x-x------------0h5p0-8p7-0h8-0-0--0--0-0--0--0-0--0--0-0--0--|
G|--0-x-x------------0h5p0-8p7-0h8-0-0--0--0-0--0--0-0--0--0-0--0--|
C|--0-x-x------------0h5p0-8p7-0h8-0-0--0--0-0--0--0-0--0--0-0--0--|
                                   pmpm    pmpm    pmpm    pmpm
Verse 1: 01:06
D|-------10-10-10-10---------------------10-10-10-10---------------|
A|-------11-11-11-11---------------------11-11-11-11---------------|
F|-----------------------------------------------------------------|
C|--0-x-x------------0h5p0-8p7-0h8--0-x-x------------0h5p0-8p7-0h8-|
G|--0-x-x------------0h5p0-8p7-0h8--0-x-x------------0h5p0-8p7-0h8-|
C|--0-x-x------------0h5p0-8p7-0h8--0-x-x------------0h5p0-8p7-0h8-|

Verse 1: 01:11
D|-------10-10-10-10-----------------------------------------------|
A|-------11-11-11-11-----------------------------------------------|
F|--------------------------------------0-------0-------0-------0--|
C|--0-x-x------------0h5p0-8p7-0h8-0-0--0--0-0--0--0-0--0--0-0--0--|
G|--0-x-x------------0h5p0-8p7-0h8-0-0--0--0-0--0--0-0--0--0-0--0--|
C|--0-x-x------------0h5p0-8p7-0h8-0-0--0--0-0--0--0-0--0--0-0--0--|
                                   pmpm    pmpm    pmpm    pmpm

Pre-Chorus 2: 01:16
D|-----------------------------------------------------------------|
A|-----------------------------------------------------------------|
F|-----------9-9-9-9/10-10-10-10--------------------9---9---9---9--|
C|--8-8-8-8--x-x-x-x--x--x--x--x---7---7---7---7----7---7---7---7--|
G|--8-8-8-8--7-7-7-7/-9--9--9--9---7---7---7---7----7---7---7---7--|
C|--8-8-8-8------------------------7---7---7---7----7---7---7---7--|

Pre-Chorus 2: 01:21
D|-----------------------------------------------------------------|
A|-----------------------------------------------------------------|
F|-----------9-9-9-9/10-10-10-10--------------------9---9---9---9--|
C|--8-8-8-8--x-x-x-x--x--x--x--x---7---7---7---7----7---7---7---7--|
G|--8-8-8-8--7-7-7-7/-9--9--9--9---7---7---7---7----7---7---7---7--|
C|--8-8-8-8------------------------7---7---7---7----7---7---7---7--|

Chorus: 01:26
D|-----------------------------------------------------------------|
A|-----------------------------------------------------------------|
F|-11--11--11-/12\11--11--11--12--12/15-15--15--15--14--14--14--14-|
C|--0---0---0---0--0---0---0---0---0--0--0---0---0---0---0---0---0-|
G|--9---9---9-/10\-9---9---9--10--10/13-13--13--13--12--12--12--12-|
C|--0---0---0--(0)(0)--0---0---0--(0)(0)-0---0---0---0---0---0---0-|

Chorus: 01:31
D|-----------------------------------------------------------------|
A|-----------------------------------------------------------------|
F|-----------------------------------------------------------------|
C|--12---10h13---0---x--x----12\-----3---3---3-3----5---5---5-5----|
G|--12---10h12---0---x--x----12\-----3---3---3-3----5---5---5-5----|
C|--12---10h12---0---x--x----12\-----3---3---3-3----5---5---5-5----|

Chorus: 01:36
D|-----------------------------------------------------------------|
A|-----------------------------------------------------------------|
F|-11--11--11-/12\11--11--11--12--12/15-15--15--15--14--14--14--14-|
C|--0---0---0---0--0---0---0---0---0--0--0---0---0---0---0---0---0-|
G|--9---9---9-/10\-9---9---9--10--10/13-13--13--13--12--12--12--12-|
C|--0---0---0--(0)(0)--0---0---0--(0)(0)-0---0---0---0---0---0---0-|

Chorus: 01:41
D|-----------------------------------------------------------------|
A|-----------------------------------------------------------------|
F|-----------------------------------------------------------------|
C|--12---10h13---0---x--x----12\-----3---3---3-3----5---5---5-5----|
G|--12---10h12---0---x--x----12\-----3---3---3-3----5---5---5-5----|
C|--12---10h12---0---x--x----12\-----3---3---3-3----5---5---5-5----|

Bridge: 01:46
D|--0--------------------------------------------------------------|
A|--0--------------------------------------------------------------|
F|--0--------------------------------------------------------------|
C|--0----------------------------------1---1----1----1---1----1----|
G|--0----------------------------------1---1----1----1---1----1----|
C|--0----------------------------------1---1----1----1---1----1----|

Bridge: 01:55
D|-----------------------------------------------------------------|
A|-----------------------------------------------------------------|
F|-----------------------------------------------------------------|
C|-----------------------------------------------------------------|
G|--3p0---1p0---1p0---3p0-5p0-6p0--3p0---1p0---1p0---3p0-5p0-6p0---|
C|--3p0---1p0---1p0----------------3p0---1p0---1p0-----------------|

Bridge: 02:00
D|-----------------------------------------------------------------|
A|-----------------------------------------------------------------|
F|-----------------------------------------------------------------|
C|-------------------------------------1---1----1----1---1----1----|
G|--3p0---1p0---1p0---3p0-5p0-6p0------1---1----1----1---1----1----|
C|--3p0---1p0---1p0--------------------1---1----1----1---1----1----|

Bridge: 02:94
D|-----------------------------------------------------------------|
A|-----------------------------------------------------------------|
F|-----------------------------------------------------------------|
C|-----------------------------------------------------------------|
G|--3p0---1p0---1p0-3p0-5p0-6p0-3p0-3p0---1p0---1p0-3p0-5p0-6p0-3p0|
C|--3p0---1p0---1p0-----------------3p0---1p0---1p0----------------|

Bridge: 02:09
D|-----------------------------------------------------------------|
A|-----------------------------------------------------------------|
F|-----------------------------------------------------------------|
C|-------------------------------------1---1----1----1---1----1----|
G|--3p0---1p0---1p0-3p0-5p0-6p0-3p0----1---1----1----1---1----1----|
C|--3p0---1p0---1p0--------------------1---1----1----1---1----1----|

Bridge: 02:14
D|-----------------------------------------------------------------|
A|-----------------------------------------------------------------|
F|-----------9-9-9-9/10-10-10-10--------------------9---9---9---9--|
C|--8-8-8-8--x-x-x-x--x--x--x--x---7---7---7---7----7---7---7---7--|
G|--8-8-8-8--7-7-7-7/-9--9--9--9---7---7---7---7----7---7---7---7--|
C|--8-8-8-8------------------------7---7---7---7----7---7---7---7--|

Bridge: 02: 01:19
D|-----------------------------------------------------------------|
A|-----------------------------------------------------------------|
F|-----------9-9-9-9/10-10-10-10--------------------9---9---9---9--|
C|--8-8-8-8--x-x-x-x--x--x--x--x---7---7---7---7----7---7---7---7--|
G|--8-8-8-8--7-7-7-7/-9--9--9--9---7---7---7---7----7---7---7---7--|
C|--8-8-8-8------------------------7---7---7---7----7---7---7---7--|

Chorus: 02:24
D|-----------------------------------------------------------------|
A|-----------------------------------------------------------------|
F|-11--11--11-/12\11--11--11--12--12/15-15--15--15--14--14--14--14-|
C|--0---0---0---0--0---0---0---0---0--0--0---0---0---0---0---0---0-|
G|--9---9---9-/10\-9---9---9--10--10/13-13--13--13--12--12--12--12-|
C|--0---0---0--(0)(0)--0---0---0--(0)(0)-0---0---0---0---0---0---0-|

Chorus: 02:30
D|-----------------------------------------------------------------|
A|-----------------------------------------------------------------|
F|-----------------------------------------------------------------|
C|--12---10h13---0---x--x----12\-----3---3---3-3----5---5---5-5----|
G|--12---10h12---0---x--x----12\-----3---3---3-3----5---5---5-5----|
C|--12---10h12---0---x--x----12\-----3---3---3-3----5---5---5-5----|

Chorus: 02:35
D|-----------------------------------------------------------------|
A|-----------------------------------------------------------------|
F|-11--11--11-/12\11--11--11--12--12/15-15--15--15--14--14--14--14-|
C|--0---0---0---0--0---0---0---0---0--0--0---0---0---0---0---0---0-|
G|--9---9---9-/10\-9---9---9--10--10/13-13--13--13--12--12--12--12-|
C|--0---0---0--(0)(0)--0---0---0--(0)(0)-0---0---0---0---0---0---0-|

Chorus: 02:40
D|-----------------------------------------------------------------|
A|-----------------------------------------------------------------|
F|-----------------------------------------------------------------|
C|--12---10h13---0---x--x----12\-----3---3---3-3----5---5---5-5----|
G|--12---10h12---0---x--x----12\-----3---3---3-3----5---5---5-5----|
C|--12---10h12---0---x--x----12\-----3---3---3-3----5---5---5-5----|

Chorus 2: 02:45
D|-----------------------------------------------------------------|
A|-----------------------------------------------------------------|
F|-11--11--11-/12\11--11--11--12--12/15-15--15--15--14--14--14--14-|
C|--0---0---0---0--0---0---0---0---0--0--0---0---0---0---0---0---0-|
G|--9---9---9-/10\-9---9---9--10--10/13-13--13--13--12--12--12--12-|
C|--0---0---0--(0)(0)--0---0---0--(0)(0)-0---0---0---0---0---0---0-|

Chorus 2: 02:50
D|-----------------------------------------------------------------|
A|-----------------------------------------------------------------|
F|-----------------------------------------------------------------|
C|--12-0-10h13---0--0--10h12-12\-----3---3---3-3----5---5---5-5----|
G|--12-0-10h12---0--0--10h12-12\-----3---3---3-3----5---5---5-5----|
C|--12-0-10h12---0--0--10h12-12\-----3---3---3-3----5---5---5-5----|

Chorus 2: 02:55
D|-----------------------------------------------------------------|
A|-----------------------------------------------------------------|
F|-11--11--11-/12\11--11--11--12--12/15-15--15--15--14--14--14--14-|
C|--0---0---0---0--0---0---0---0---0--0--0---0---0---0---0---0---0-|
G|--9---9---9-/10\-9---9---9--10--10/13-13--13--13--12--12--12--12-|
C|--0---0---0--(0)(0)--0---0---0--(0)(0)-0---0---0---0---0---0---0-|

Chorus 2: 03:00
D|-----------------------------------------------------------------|
A|-----------------------------------------------------------------|
F|-----------------------------------------------------------------|
C|--12-0-10h13---0--0--10h12-12\-----3---3---3-3----5---5---5-5----|
G|--12-0-10h12---0--0--10h12-12\-----3---3---3-3----5---5---5-5----|
C|--12-0-10h12---0--0--10h12-12\-----3---3---3-3----5---5---5-5----|

Outro: 03:05
D|-----------------------------------------------------------------|
A|-----------------------------------------------------------------|
F|-----------------------------------------------------------------|
C|-----------------------------------------------------------------|
G|--3p0---1p0---1p0---3p0-5p0-6p0--3p0---1p0---1p0---3p0-5p0-6p0---|
C|--3p0---1p0---1p0----------------3p0---1p0---1p0-----------------|

Outro: 03:09
D|-----------------------------------------------------------------|
A|-----------------------------------------------------------------|
F|-----------------------------------------------------------------|
C|-----------------------------------------------------0-0----0-0--|
G|--3p0---1p0---1p0---3p0-5p0-6p0---3p0---1p0---1p0----0-0-xx-0-0--|
C|--3p0---1p0---1p0-----------------3p0---1p0---1p0----0-0-xx-0-0--|

Chorus 3: 03:16
D|-----------------------------------------------------------------|
A|-----------------------------------------------------------------|
F|-11--11--11-/12\11--11--11--12--12/15-15--15--15--14--14--14--14-|
C|--0---0---0---0--0---0---0---0---0--0--0---0---0---0---0---0---0-|
G|--9---9---9-/10\-9---9---9--10--10/13-13--13--13--12--12--12--12-|
C|--0---0---0--(0)(0)--0---0---0--(0)(0)-0---0---0---0---0---0---0-|

Chorus 3: 03:22
D|-----------------------------------------------------------------|
A|-----------------------------------------------------------------|
F|-11-11-11-/12\11-11-11-12-12/15-15-15-15-15-15-14-14-14-14-14-14-|
C|--0--0--0---0--0--0--0--0--0--0--0--0--0--0--0--0--0--0--0--0--0-|
G|--9--9--9-/10\-9--9--9-10-10/13-13-13-13-13-13-12-12-12-12-12-12-|
C|--0--0--0--(0)(0)-0--0--0-(0)(0)-0--0--0--0--0--0--0--0--0--0--0-|

Chorus 3: 03:22
D|-----------------------------------------------------------------|
A|-----------------------------------------------------------------|
F|-14--------------------------------------------------------------|
C|--0--------------------------------------------------------------|
G|-12--------------------------------------------------------------|
C|--0--------------------------------------------------------------|

Finished!
Related for Dictatorship Vs Democracy tab