Song name
# A B C D E F G H I J K L M N O P Q R S T U V W X Y Z

Staple - Honor And Integrity tab

Staple
Honor and Integrity
Tabbed by U B the band
Tuning Drop C

Legend
x-scratch          p-pull off          h-hammer on
b-bend             pm-palm mute        \-slide down

Intro: (Guitars 1 and 2) 00:07
F|------------------------------------------------------------|
A|------------------------------------------------------------|
F|-------------------------------------------------x---9b-----|
C|--7--7--7--0--7--7--7--0--7--7--7--0--10--10--x--x----------|
G|--5--5--5--0--5--5--5--0--5--5--5--0--8---8---x--x----------|
C|-----------0-----------0-----------0----------x--x----------|

Intro: (Guitars 1 and 2) 00:11
F|------------------------------------------------------------|
A|------------------------------------------------------------|
F|-------------------------------------------------x---9b-----|
C|--7--7--7--0--7--7--7--0--7--7--7--0--10--10--x--x-------0--|
G|--5--5--5--0--5--5--5--0--5--5--5--0--8---8---x--x-------0--|
C|-----------0-----------0-----------0----------x--x-------0--|
                                          Guitar 1 only----^

Verse: (Guitar 2) 00:19 / 00:26 / 00:34 / 00:41 (play 4 times)
F|----------------------------------5-------5-----5-6-6-5-----|
A|--8---5-5-8---5-5-5-------5-----------6-6-----6----6----6-6-|
F|----6--6----6--6------6-6-----6-6---7--7----7---------------|
C|--------------------7--7----7--7----------------------------|
G|------------------------------------------------------------|
C|------------------------------------------------------------|

Pre-Chorus: (Guitars 1 and 2) 00:49
D|------------------------------------------------------------|
A|------------------------------------------------------------|
F|-----------------7b--------------------------7b-------------|
C|---------------------x-x-x-x---------------------x-x-x-x----|
G|--8p7--8p0--5p0------x-x-x-x--8p7--8p0--5p0------x-x-x-x----|
C|--8p7--8p0--5p0------x-x-x-x--8p7--8p0--5p0------x-x-x-x----|

Pre-Chorus: (Guitars 1 and 2) 00:53
D|------------------------------------------------------------|
A|------------------------------------------------------------|
F|-----------------7b-----------------------------------------|
C|---------------------x-x-x-x--------------------------------|
G|--8p7--8p0--5p0------x-x-x-x--8--8-----7-----8-----10-------|
C|--8p7--8p0--5p0------x-x-x-x--8--8-----7-----8-----10-------|

Chorus: (Guitars 1 and 2) 00:56
F|------------------------------------------------------------|
A|------------------------------------------------------------|
F|-------------------------------------------------x---9b-----|
C|--7--7--7--0--7--7--7--0--7--7--7--0--10--10--x--x----------|
G|--5--5--5--0--5--5--5--0--5--5--5--0--8---8---x--x----------|
C|-----------0-----------0-----------0----------x--x----------|

Chorus: (Guitars 1 and 2) 01:00
F|------------------------------------------------------------|
A|------------------------------------------------------------|
F|------------------------------------------------------------|
C|--7----7----7----7----7----7----7----7----7----7----7----7--|
G|--5----5----5----5----5----5----5----5----5----5----5----5--|
C|--0----0----0----0----0----0----0----0----0----0----0----0--|

Chorus: (Guitars 1 and 2) 01:02
F|------------------------------------------------------------|
A|------------------------------------------------------------|
F|--12---12---12---12---12---12---12---12--12--12--12--12--12-|
C|---x----x----x----x----x----x----x----x---x---x---x---x---x-|
G|--10---10---10---10---10---10---10---10--10--10--10--10--10-|
C|------------------------------------------------------------|
                             |____gradual bend____||_release_|

Chorus: (Guitars 1 and 2) 01:04
F|------------------------------------------------------------|
A|------------------------------------------------------------|
F|-------------------------------------------------x---9b-----|
C|--7--7--7--0--7--7--7--0--7--7--7--0--10--10--x--x----------|
G|--5--5--5--0--5--5--5--0--5--5--5--0--8---8---x--x----------|
C|-----------0-----------0-----------0----------x--x----------|

Chorus: (Guitars 1 and 2) 01:08
F|------------------------------------------------------------|
A|------------------------------------------------------------|
F|------------------------------------------------------------|
C|--7----7----7----7----7----7----7----7----7----7----7----7--|
G|--5----5----5----5----5----5----5----5----5----5----5----5--|
C|--0----0----0----0----0----0----0----0----0----0----0----0--|

Chorus: (Guitars 1 and 2) 01:10
F|------------------------------------------------------------|
A|------------------------------------------------------------|
F|--12---12---12---12---12---12---12---12--12--12--12--12--12-|
C|---x----x----x----x----x----x----x----x---x---x---x---x---x-|
G|--10---10---10---10---10---10---10---10--10--10--10--10--10-|
C|---0----0----0----0----0----0----0----0---0---0---0---0---0-|
                             |____gradual bend____||_release_|

End of Chorus: (Guitar 2) 01:12
D|------------------------------------------------------------|
A|------------------------------------------------------------|
F|------------------------------------------------------------|
C|--0---------------------------------------------------------|
G|--0---------------------------------------------------------|
C|--0---------------------------------------------------------|

Verse 2: (Guitar 2) 01:16
F|----------------------------------5-------5-----5-6-6-5-----|
A|--8---5-5-8---5-5-5-------5-----------6-6-----6----6----6-6-|
F|----6--6----6--6------6-6-----6-6---7--7----7---------------|
C|--------------------7--7----7--7----------------------------|
G|------------------------------------------------------------|
C|------------------------------------------------------------|

Verse 2:01:23
F|----------------------------------5---------6--------5------|
A|------5---5-------5-----------------6----------6------------|
F|--------6--------------6--------------7-----------7---------|
C|---------------------7---7----------------------------------|
G|------------------------------------------------------------|
C|------------------------------------------------------------|

Verse 2: (Guitar 2) 01:31 / 01:38 (play 2 times)
F|----------------------------------5-------5-----5-6-6-5-----|
A|--8---5-5-8---5-5-5-------5-----------6-6-----6----6----6-6-|
F|----6--6----6--6------6-6-----6-6---7--7----7---------------|
C|--------------------7--7----7--7----------------------------|
G|------------------------------------------------------------|
C|------------------------------------------------------------|

Pre-Chorus: (Guitars 1 and 2) 01:46
D|------------------------------------------------------------|
A|------------------------------------------------------------|
F|-----------------7b--------------------------7b-------------|
C|---------------------x-x-x-x---------------------x-x-x-x----|
G|--8p7--8p0--5p0------x-x-x-x--8p7--8p0--5p0------x-x-x-x----|
C|--8p7--8p0--5p0------x-x-x-x--8p7--8p0--5p0------x-x-x-x----|

Pre-Chorus: (Guitars 1 and 2) 01:49
D|------------------------------------------------------------|
A|------------------------------------------------------------|
F|-----------------7b-----------------------------------------|
C|---------------------x-x-x-x--------------------------------|
G|--8p7--8p0--5p0------x-x-x-x--8--8-----7-----8-----10-------|
C|--8p7--8p0--5p0------x-x-x-x--8--8-----7-----8-----10-------|

Chorus: (Guitars 1 and 2) 01:53
F|------------------------------------------------------------|
A|------------------------------------------------------------|
F|-------------------------------------------------x---9b-----|
C|--7--7--7--0--7--7--7--0--7--7--7--0--10--10--x--x----------|
G|--5--5--5--0--5--5--5--0--5--5--5--0--8---8---x--x----------|
C|-----------0-----------0-----------0----------x--x----------|

Chorus: (Guitars 1 and 2) 01:57
F|------------------------------------------------------------|
A|------------------------------------------------------------|
F|------------------------------------------------------------|
C|--7----7----7----7----7----7----7----7----7----7----7----7--|
G|--5----5----5----5----5----5----5----5----5----5----5----5--|
C|--0----0----0----0----0----0----0----0----0----0----0----0--|

Chorus: (Guitars 1 and 2) 01:59
F|------------------------------------------------------------|
A|------------------------------------------------------------|
F|--12---12---12---12---12---12---12---12--12--12--12--12--12-|
C|---x----x----x----x----x----x----x----x---x---x---x---x---x-|
G|--10---10---10---10---10---10---10---10--10--10--10--10--10-|
C|------------------------------------------------------------|
                             |____gradual bend____||_release_|

Chorus: (Guitars 1 and 2) 02:01
F|------------------------------------------------------------|
A|------------------------------------------------------------|
F|-------------------------------------------------x---9b-----|
C|--7--7--7--0--7--7--7--0--7--7--7--0--10--10--x--x----------|
G|--5--5--5--0--5--5--5--0--5--5--5--0--8---8---x--x----------|
C|-----------0-----------0-----------0----------x--x----------|

Chorus: (Guitars 1 and 2) 02:05
F|------------------------------------------------------------|
A|------------------------------------------------------------|
F|------------------------------------------------------------|
C|--7----7----7----7----7----7----7----7----7----7----7----7--|
G|--5----5----5----5----5----5----5----5----5----5----5----5--|
C|--0----0----0----0----0----0----0----0----0----0----0----0--|

Chorus: (Guitars 1 and 2) 02:07
F|------------------------------------------------------------|
A|------------------------------------------------------------|
F|--12---12---12---12---12---12---12---12--12--12--12--12--12-|
C|---x----x----x----x----x----x----x----x---x---x---x---x---x-|
G|--10---10---10---10---10---10---10---10--10--10--10--10--10-|
C|---0----0----0----0----0----0----0----0---0---0---0---0---0-|
                             |____gradual bend____||_release_|

End of Chorus 2: (Guitar 2) 02:09
D|-------0-----------------------0----------------------------|
A|-------6-----------------------3----------------------------|
F|-------7-----------------------2----------------------------|
C|-------------------------------0----------------------------|
G|--8-----------------------3---------------------------------|
C|--8-----------------------3---------------------------------|

Bridge: 02:16 (Strum)
D|------------------------------------------------------------|
A|--2---------------------------------------------------------|
F|--2---------------------------------------------------------|
C|--0---------------------------------------------------------|
G|--0---------------------------------------------------------|
C|------------------------------------------------------------|

Bridge: 02:20 (palm muted)
D|------------------------------------------------------------|
A|------------------------------------------------------------|
F|------------------------------------------------------------|
C|------7--0-0--5--0-0--7--0-0--8--0-0--7--0-0--5-0--3-0--2-0-|
G|--000-------------------------------------------------------|
C|--000-------------------------------------------------------|

Bridge: 02:23 (Strum)
D|------------------------------------------------------------|
A|--2---------------------------------------------------------|
F|--2---------------------------------------------------------|
C|--0---------------------------------------------------------|
G|--0---------------------------------------------------------|
C|------------------------------------------------------------|

Bridge: 02:27 (palm muted)
D|------------------------------------------------------------|
A|------------------------------------------------------------|
F|------------------------------------------------------------|
C|------7--0-0--5--0-0--7--0-0--8--0-0--7--0-0--5-0--3-0--2-0-|
G|--000-------------------------------------------------------|
C|--000-------------------------------------------------------|

Bridge: 02:31 (Strum)
D|------------------------------------------------------------|
A|--2---------------------------------------------------------|
F|--2---------------------------------------------------------|
C|--0---------------------------------------------------------|
G|--0---------------------------------------------------------|
C|------------------------------------------------------------|

Bridge: 02:35
D|------------------------------------------------------------|
A|------------------------------------------------------------|
F|------------------------------------------------------------|
C|------7--0-0--5--0-0--7--0-0--8--0-0--7--0-0--5-0--3-0--2-0-|
G|--0000------------------------------------------------------|
C|--0000------------------------------------------------------|
    pmpm

Bridge: 02:39
D|------------------------------------------------------------|
A|------------------------------------------------------------|
F|------------------------------------------------------------|
C|------7--0-0--5--0-0--7--0-0--8--0-0--7--0-0--5-0--3-0--2-0-|
G|--0000------------------------------------------------------|
C|--0000------------------------------------------------------|
    pmpm

Bridge: 02:43
D|--10h11-10-------10h11-10-------10h11-10-------10h11-10-----|
A|--10-------------10-------------10-------------10--------\--|
F|------------------------------------------------------------|
C|------------------------------------------------------------|
G|------------------------------------------------------------|
C|------------------------------------------------------------|

Bridge: (Guitar 2) 02:50 / 02:58 / 03:06 / 03:13 (play 4 times)
F|----------------------------------5-------5-----5-6-6-5-----|
A|--8---5-5-8---5-5-5-------5-----------6-6-----6----6----6-6-|
F|----6--6----6--6------6-6-----6-6---7--7----7---------------|
C|--------------------7--7----7--7----------------------------|
G|------------------------------------------------------------|
C|------------------------------------------------------------|

Bridge: 03:21
F|-------------------------------0----------------------------|
A|--8---5-5--8---5-5--5------5---5----------------------------|
F|----6--6-----6--6-------6------6----------------------------|
C|----------------------7--7---7------------------------------|
G|------------------------------------------------------------|
C|------------------------------------------------------------|

Chorus: (Guitars 1 and 2) 03:24
F|------------------------------------------------------------|
A|------------------------------------------------------------|
F|-------------------------------------------------x---9b-----|
C|--7--7--7--0--7--7--7--0--7--7--7--0--10--10--x--x----------|
G|--5--5--5--0--5--5--5--0--5--5--5--0--8---8---x--x----------|
C|-----------0-----------0-----------0----------x--x----------|

Chorus: (Guitars 1 and 2) 03:28
F|------------------------------------------------------------|
A|------------------------------------------------------------|
F|------------------------------------------------------------|
C|--7----7----7----7----7----7----7----7----7----7----7----7--|
G|--5----5----5----5----5----5----5----5----5----5----5----5--|
C|--0----0----0----0----0----0----0----0----0----0----0----0--|

Chorus: (Guitars 1 and 2) 03:30
F|------------------------------------------------------------|
A|------------------------------------------------------------|
F|--12---12---12---12---12---12---12---12--12--12--12--12--12-|
C|---x----x----x----x----x----x----x----x---x---x---x---x---x-|
G|--10---10---10---10---10---10---10---10--10--10--10--10--10-|
C|------------------------------------------------------------|
                             |____gradual bend____||_release_|

Chorus: (Guitars 1 and 2) 03:32
F|------------------------------------------------------------|
A|------------------------------------------------------------|
F|-------------------------------------------------x---9b-----|
C|--7--7--7--0--7--7--7--0--7--7--7--0--10--10--x--x----------|
G|--5--5--5--0--5--5--5--0--5--5--5--0--8---8---x--x----------|
C|-----------0-----------0-----------0----------x--x----------|

Chorus: (Guitars 1 and 2) 03:36
F|------------------------------------------------------------|
A|------------------------------------------------------------|
F|------------------------------------------------------------|
C|--7----7----7----7----7----7----7----7----7----7----7----7--|
G|--5----5----5----5----5----5----5----5----5----5----5----5--|
C|--0----0----0----0----0----0----0----0----0----0----0----0--|

Chorus: (Guitars 1 and 2) 03:38
F|------------------------------------------------------------|
A|------------------------------------------------------------|
F|--12---12---12---12---12---12---12---12--12--12--12--12--12-|
C|---x----x----x----x----x----x----x----x---x---x---x---x---x-|
G|--10---10---10---10---10---10---10---10--10--10--10--10--10-|
C|---0----0----0----0----0----0----0----0---0---0---0---0---0-|
                             |____gradual bend____||_release_|

Chorus: (Guitars 1 and 2) 03:40
F|------------------------------------------------------------|
A|------------------------------------------------------------|
F|-------------------------------------------------x---9b-----|
C|--7--7--7--0--7--7--7--0--7--7--7--0--10--10--x--x----------|
G|--5--5--5--0--5--5--5--0--5--5--5--0--8---8---x--x----------|
C|-----------0-----------0-----------0----------x--x----------|

Chorus: (Guitars 1 and 2) 03:43
F|------------------------------------------------------------|
A|------------------------------------------------------------|
F|------------------------------------------------------------|
C|--7----7----7----7----7----7----7----7----7----7----7----7--|
G|--5----5----5----5----5----5----5----5----5----5----5----5--|
C|--0----0----0----0----0----0----0----0----0----0----0----0--|

Chorus: (Guitars 1 and 2) 03:45
F|------------------------------------------------------------|
A|------------------------------------------------------------|
F|--12---12---12---12---12---12---12---12--12--12--12--12--12-|
C|---x----x----x----x----x----x----x----x---x---x---x---x---x-|
G|--10---10---10---10---10---10---10---10--10--10--10--10--10-|
C|------------------------------------------------------------|
                             |____gradual bend____||_release_|

Chorus: (Guitars 1 and 2) 03:47
F|------------------------------------------------------------|
A|------------------------------------------------------------|
F|-------------------------------------------------x---9b-----|
C|--7--7--7--0--7--7--7--0--7--7--7--0--10--10--x--x----------|
G|--5--5--5--0--5--5--5--0--5--5--5--0--8---8---x--x----------|
C|-----------0-----------0-----------0----------x--x----------|

Chorus: (Guitars 1 and 2) 03:51
F|------------------------------------------------------------|
A|------------------------------------------------------------|
F|------------------------------------------------------------|
C|--7----7----7----7----7----7----7----7----7----7----7----7--|
G|--5----5----5----5----5----5----5----5----5----5----5----5--|
C|--0----0----0----0----0----0----0----0----0----0----0----0--|

Chorus: (Guitars 1 and 2) 03:53
F|------------------------------------------------------------|
A|------------------------------------------------------------|
F|--12---12---12---12---12---12---12---12--12--12--12--12--12-|
C|---x----x----x----x----x----x----x----x---x---x---x---x---x-|
G|--10---10---10---10---10---10---10---10--10--10--10--10--10-|
C|---0----0----0----0----0----0----0----0---0---0---0---0---0-|
                             |____gradual bend____||_release_|

Chorus/Outro: (Guitar 1) 03:55
F|------------------------------------------------------------|
A|------------------------------------------------------------|
F|------------------------------------------------------------|
C|--3----3----3----3----3----3----5----5----5----5----5----5--|
G|--3----3----3----3----3----3----5----5----5----5----5----5--|
C|--3----3----3----3----3----3----5----5----5----5----5----5--|

Chorus/Outro: (Guitar 2) 03:55
F|------------------------------------------------------------|
A|------------------------------------------------------------|
F|----------------------------------10b-----------------------|
C|------------------------------------------------------------|
G|------------------------------------------------------------|
C|------------------------------------------------------------|

Chorus/Outro: (Guitar 1) 03:59
F|------------------------------------------------------------|
A|------------------------------------------------------------|
F|------------------------------------------------------------|
C|--8----8----8----8----8----8----10----10----10----10--------|
G|--8----8----8----8----8----8----10----10----10----10--------|
C|--8----8----8----8----8----8----10----10----10----10--------|

Chorus/Outro: (Guitar 2) 03:59
F|------------------------------------------------------------|
A|------------------------------------------------------------|
F|----------------------------------10b-----------------------|
C|------------------------------------------------------------|
G|------------------------------------------------------------|
C|------------------------------------------------------------|

Chorus/Outro: (Guitar 1) 04:02
F|------------------------------------------------------------|
A|------------------------------------------------------------|
F|------------------------------------------------------------|
C|--8--xx--8h10-8----7----5--xx--5h7----5----5----0-----------|
G|--8--xx--8h10-8----7----5--xx--5h7----5----5----0-----------|
C|--8--xx--8h10-8----7----5--xx--5h7----5----5----0-----------|

Finished!
Tap to rate this tab
 
# A B C D E F G H I J K L M N O P Q R S T U V W X Y Z