Song name
# A B C D E F G H I J K L M N O P Q R S T U V W X Y Z

Staple - Pop tab

-------------------------------------------------------------------------------
			     Pop - Staple
-------------------------------------------------------------------------------
Tabbed by: Tex777
Email: Tex777@gmail.com

Tuning: Drop C

Part A
D|---------------------------------------------------------------------------|
A|---------------------------------------------------------------------------|
F|---------------------------------------------------------------------------|
C|---------------------------------------------------------------------------|
G|---------------------------------------------------------------------------|
C|-6--0--0---6-5-3-1-0---0----6-5-3-1-0---0----6-5-3--0-0--0-0---1-3-1--0----|
                                                      x x  x x

Last time on Part A
C|---------------------------------------------------------------------------|
G|-0-0-3---------------------------------------------------------------------|
C|-0-0-3---------------------------------------------------------------------|
   x x

Part B
D|---------------------------------------------------------------------------|
A|---------------------------------------------------------------------------|
F|---------------------------------------------------------------------------|
C|---------------------------------------------------------------------------|
G|-7-0--0--0-6--6-0--0--0-5--5-0--0--0-6-5-0-0-1--1-3-1-0--------------------|
C|-7-0--0--0-6--6-0--0--0-5--5-0--0--0-6-5-0-0-1--1-3-1-0--------------------|
                                           x x

D|---------------------------------------------------------------------------|
A|---------------------------------------------------------------------------|
F|---------------------------------------------------------------------------|
C|---------------------------------------------------------------------------|
G|-6--0--0---6-5-3-1-0---0----6-5-3-1-0---0----6-5-3--0-0--0-0---1-3-1--0----|
C|-6--0--0---6-5-3-1-0---0----6-5-3-1-0---0----6-5-3--0-0--0-0---1-3-1--0----|
                                                      x x  x x

Part C
D|---------------------------------------------------------------------------|
A|---------------------------------------------------------------------------|
F|---------------------------------------------------------------------------|
C|-7-----3--0-----7-----1---3------------------------------------------------|
G|-7-----3--0-----7-----1---1------------------------------------------------|
C|-7-----3--0-----7-----1----------------------------------------------------|
   strum each for appropriate length

Gtr. 2 riff
D|---------------------------------------------------------------------------|
A|---------------------------------------------------------------------------|
F|----------------------------7-7-7-7-7-8-7-5--------------------------------|
C|---------------------------------------------------------------------------|
G|---------------------------------------------------------------------------|
C|---------------------------------------------------------------------------|

D|---------------------------------------------------------------------------|
A|---------------------------------------------------------------------------|
F|-----------------------------------------8-9--9-9-9-9-9-9------------------|
C|----------------------------------6---8--8-8--8-8-8-8-8-8------------------|
G|----------------------------------6---6--6-6--6-6-6-6-6-6------------------|
C|-0-2-3-0-0-1-0-2-3-0-0-1-0-0-0-0--6---6--6-6--6-6-6-6-6-6------------------|
   x     x     x     x     x x x x

Part D
D|---------------------------------------------------------------------------|
A|-----------7-7-7-7-7-8-7-5---------------7-7-7-7-7-8-7-5-------------------|
F|---------------------------------------------------------------------------|
C|---------------------------------------------------------------------------|
G|-0-1--0----------------------0-1--0----------------------------------------|
C|-0-1--0----------------------0-1--0----------------------------------------|
   x    ring-----------------| x    ring-------------------|
            ^^ this little part can be Gtr 1 or 2 by preference

D|---------------------------------------------------------------------------|
A|---------------------------------------------------------------------------|
F|---------------------------------------------------------------------------|
C|---------------------------------------------------------------------------|
G|---------------------------------------------------------------------------|
C|-0-2-3-0-0-1-0-2-3-0-0-1-0-0-0-0-0--2-3-0-0-1-0-2-3-0-0-1-0---0---0--------|
   x     x     x     x     x x x x x      x     x     x         x   x

D|---------------------------------------------------------------------------|
A|---------------------------------------------------------------------------|
F|---------------------------------------------------------------------------|
C|---------------------------------------------------------------------------|
G|-0-2-3-0-0-1-0-2-3-0-0-1-0-0-0-0-0--2-3-0-0-1-0-2-3-0-0-1-0---0--0--0------|
C|-0-2-3-0-0-1-0-2-3-0-0-1-0-0-0-0-0--2-3-0-0-1-0-2-3-0-0-1-0---0--0--0------|
   x     x     x     x     x x x x x      x     x     x         x  x  x

Outro
D|---------------------------------------------------------------------------|
A|---------------------------------------------------------------------------|
F|---------------------------------------------------------------------------|
C|---------------------------------------------------------------------------|
G|-0-2-3-0-0-1-0-2-3-0-0-1--0--0--0--0--0------------------------------------|
C|-0-2-3-0-0-1-0-2-3-0-0-1--0--0--0--0--0------------------------------------|
   x     x     x     x      x  x  x  x  x


| /  slide up
| \  slide down
| h  hammer-on
| p  pull-off
| ~  vibrato
| +  harmonic
| x  Mute note
===============================================================================

http://en.wikipedia.org/wiki/Staple_(band)
http://www.staplemusic.com/
http://www.myspace.com/staple
Tap to rate this tab
# A B C D E F G H I J K L M N O P Q R S T U V W X Y Z