Song name
# A B C D E F G H I J K L M N O P Q R S T U V W X Y Z

Staple - Deathtrap Daisy tab

Staple                      http://www.staplemusic.com/
Deathtrap Daisy             http://en.wikipedia.org/wiki/Staple_(band)
Tabbed by U B the band      http://www.myspace.com/staple
Tuning Drop C

Legend
p-pull off
pm-palm mute
/-slide up
x-scratch

Staple only has one guitarist but he records 2 in the studio and 
they have a touring guitarist, so for the sake of knowing I thought
that I should say that before someone says something lol.

Intro: Guitar 1 (distorted)
D|-----------------------------------------------|
A|-----------------------------------------------|
F|-----------------------------------------------|
C|-----------------------------------------------|
G|--1p0--0--0--0--0--1p0--1p0--0--0--0--0--1p0---|
C|--1p0--0--0--0--0--1p0--1p0--0--0--0--0--1p0---|

D|-----------------------------------------------|
A|-----------------------------------------------|
F|-----------------------------------------------|
C|-----------------------------------------------|
G|--1p0--0--0--0--0--1p0--1p0--0--0--0--0000-00--|
C|--1p0--0--0--0--0--1p0--1p0--0--0--0--0000-00--|
                                        pmpm

Intro Cont: Guitar 1 (distorted)
D|-----------------------------------------------|
A|-----------------------------------------------|
F|-----------------------------------------------|
C|-----------------------------------------------|
G|--1p0---0-0--0-0-0-0--1/8--0-0--0-0-0-0--1/8---|
C|--1p0---0-0--0-0-0-0--1/8--0-0--0-0-0-0--1/8---|

D|----------------------------------------------------|
A|----------------------------------------------------|
F|----------------------------------------------------|
C|----------------------------------------------------|
G|--0-0--0-0-0-0--1/8--0-0-0-0-0-0-xx1p0-0x-1p0-0x-0--|
C|--0-0--0-0-0-0--1/8--0-0-0-0-0-0-xx1p0-0x-1p0-0x-0--|

Chorus: Guitar 1 (distorted)
D|----------------------------------------------------|
A|----------------------------------------------------|
F|----------------------------------------------------|
C|----------------------------------------------------|
G|-(0)------------------------------------------------|
C|-(0)------------------------------------------------|

Chorus: Guitar 2 (clean)
D|------5------6------5---------5------8-----6--------|
A|----6---6------6------6-----6---6------8-----8------|
F|-----------7-----7------7----------7-----8-----8\7--|
C|--0-----------------------0-------------------------|
G|----------------------------------------------------|
C|----------------------------------------------------|

D|------5------6------5---------5------8-----6--------|
A|----6---6------6------6-----6---6------8-----8------|
F|-----------7-----7------7----------7-----8-----8----|
C|--0-----------------------0-------------------------|
G|----------------------------------------------------|
C|----------------------------------------------------|

Guitar 2: (clean)
D|----------------------------------------------------|
A|---10---10---10---10---10--/11---11---11---11---11--|
F|----------------------------------------------------|
C|--0----0----0----0----0---0-----0----0----0----0----|
G|----------------------------------------------------|
C|----------------------------------------------------|

D|---------------------------------------11-----------|
A|---\10---10---10---10---10---/11---11------11---10--|
F|----------------------------------------------------|
C|--0-----0----0----0----0----0-----0---0---0----0----|
G|----------------------------------------------------|
C|----------------------------------------------------|

Verse 1: Guitar 1 (distorted)
D|----------------------------------------------------|
A|--10-10-10--10\9-9-9-9--9/10-10-10-10--10\9-9-9-9---|
F|--7--7--7---7----7-7-7--7----7--7--7---7----7-7-7---|
C|--0--0--0---0----0-0-0--0----0--0--0---0----0-0-0---|
G|----------------------------------------------------|
C|----------------------------------------------------|

D|----------------------------------------------------|
A|--xx10-10-10--10\9-9-9-9xxx10-10-10-10--------------|
F|--xx7--7--7---7----7-7-7xxx7--7--7--7---------------|
C|--xx0--0--0---0----0-0-0xxx0--0--0--0------------0--|
G|--------------------------------------1p0-0x-1-0----|
C|--------------------------------------1p0-0x-1-0----|

Pre-Chorus: Guitar 1 (distorted)
D|---------------------------------------------|
A|---------------------------------------------|
F|---------------------------------------------|
C|---------------------------------------------|
G|--1p0--0-0--0-0-0-0--1/8--0-0--0-0-0-0--1/8--|
C|--1p0--0-0--0-0-0-0--1/8--0-0--0-0-0-0--1/8--|

D|-----------------------------------------|
A|-----------------------------------------|
F|-----------------------------------------|
C|-----------------------------------------|
G|--0-0--0-0-0-0--1/8--0-0--0-0-0---0-0-0--|
C|--0-0--0-0-0-0--1/8--0-0--0-0-0---0-0-0--|

Chorus: Both Guitars *play 2 times* (distorted)
D|---------------------------------------------------------|
A|---------------------------------------------------------|
F|---------------------------------------------------------|
C|--00-0-00-00-0-00-00-0-00-00-0-00--8\7--8\7--7\-11-1-33--|
G|--55-5-55-55-5-55-66-6-66-88-8-88--6\5--6\5--5\-11-1-33--|
C|--0---------------------------------------------11-1-33--|

After Chorus: Guitar 1 (distorted)
D|----------------------------------------------------|
A|----------------------------------------------------|
F|----------------------------------------------------|
C|--0-------------------------------------------------|
G|--0-------------------------------------------------|
C|--0-------------------------------------------------|

After Chorus: Guitar 2 (clean)
D|----------------------------------------------------|
A|---10---10---10---10---10--/11---11---11---11---11--|
F|----------------------------------------------------|
C|--0----0----0----0----0---0-----0----0----0----0----|
G|----------------------------------------------------|
C|----------------------------------------------------|

Guitar 1 Cont.                                        --|
D|----------------------------------------------------| |
A|----------------------------------------------------| |
F|----------------------------------------------------| |
C|--0-------------------------------------------------| |
G|--0-------------------------------------------------| |
C|--0-------------------------------------------------| |play
                                                        |2
Guitar 2 Cont.                                          |times
D|---------------------------------------11-----------| |
A|---\10---10---10---10---10---/11---11------11---10--| |
F|----------------------------------------------------| |
C|--0-----0----0----0----0----0-----0---0---0----0----| |
G|----------------------------------------------------| |
C|----------------------------------------------------| |
                                                      --|
Verse 2: Guitar 1 (distorted)
D|----------------------------------------------------|
A|--10-10-10--10\9-9-9-9--9/10-10-10-10--10\9-9-9-9---|
F|--7--7--7---7----7-7-7--7----7--7--7---7----7-7-7---|
C|--0--0--0---0----0-0-0--0----0--0--0---0----0-0-0---|
G|----------------------------------------------------|
C|----------------------------------------------------|

D|----------------------------------------------------|
A|--xx10-10-10--10\9-9-9-9xxx10-10-10-10--------------|
F|--xx7--7--7---7----7-7-7xxx7--7--7--7---------------|
C|--xx0--0--0---0----0-0-0xxx0--0--0--0------------0--|
G|--------------------------------------1p0-0x-1-0----|
C|--------------------------------------1p0-0x-1-0----|

Pre-Chorus: Guitar 1 (distorted)
D|---------------------------------------------|
A|---------------------------------------------|
F|---------------------------------------------|
C|---------------------------------------------|
G|--1p0--0-0--0-0-0-0--1/8--0-0--0-0-0-0--1/8--|
C|--1p0--0-0--0-0-0-0--1/8--0-0--0-0-0-0--1/8--|

D|-----------------------------------------|
A|-----------------------------------------|
F|-----------------------------------------|
C|-----------------------------------------|
G|--0-0--0-0-0-0--1/8--0-0--0-0-0---0-0-0--|
C|--0-0--0-0-0-0--1/8--0-0--0-0-0---0-0-0--|

Chorus: Both Guitars *play 2 times* (distorted)
D|---------------------------------------------------------|
A|---------------------------------------------------------|
F|---------------------------------------------------------|
C|--00-0-00-00-0-00-00-0-00-00-0-00--8\7--8\7--7\-11-1-33--|
G|--55-5-55-55-5-55-66-6-66-88-8-88--6\5--6\5--5\-11-1-33--|
C|--0---------------------------------------------11-1-33--|

Outro: Both Guitars (strum) *play 2 times*
D|---------------------------------------------------------|
A|---------------------------------------------------------|
F|--7-----------------5-----------------3------------------|
C|--0-----------------5-----------------3-----xx-1---------|
G|--5-----------------3-----------------1-----xx-1---------|
C|--0-----------------------------------------xx-1---------|

Outro: Continued
D|--10-10-10-10-10-10-10-10-10-10-10-10-10-10-10-10--|
A|--10-10-10-10-10-10-10-10-10-10-10-10-10-10-10-10--|
F|--7--7--7--7--7--7--7--7--7--7--7--7--7--7--7--7---|
C|--0--0--0--0--0--0--0--0--0--0--0--0--0--0--0--0---|
G|---------------------------------------------------|
C|---------------------------------------------------|

D|---------------------------------------------------|
A|--9--9--9--9--9--9--9--9--9--9--9--9--9--9--9--9---|
F|--7--7--7--7--7--7--7--7--7--7--7--7--7--7--7--7---|
C|--0--0--0--0--0--0--0--0--0--0--0--0--0--0--0--0---|
G|---------------------------------------------------|
C|---------------------------------------------------|

Outro: Continued both guitars
D|-----------------------------------------------|
A|-----------------------------------------------|
F|-----------------------------------------------|
C|-----------------------------------------------|
G|--1p0--0--0--0--0--1p0--1p0--0--0--0--0--1p0---|
C|--1p0--0--0--0--0--1p0--1p0--0--0--0--0--1p0---|

D|-----------------------------------------------|
A|-----------------------------------------------|
F|-----------------------------------------------|
C|-----------------------------------------------|
G|--1p0--0--0--0--0--1p0--1p0--0--0--0-0000-08\--|
C|--1p0--0--0--0--0--1p0--1p0--0--0--0-0000-08\--|
                                       pmpm
Outro continued
D|-----------------------------------------------|
A|-----------------------------------------------|
F|-----------------------------------------------|
C|-----------------------------------------------|
G|--1p0-0-0-1p0-0-0-1p0-0-1p0-0-0-1p0-0-0--0000--|
C|--1p0-0-0-1p0-0-0-1p0-0-1p0-0-0-1p0-0-0--0000--|
                                           pmpm

D|-----------------------------------------------|
A|-----------------------------------------------|
F|-----------------------------------------------|
C|-----------------------------------------------|
G|--1p0-0-0-1p0-0-0-1p0-0-1p0-0-0-1p0-0-0--000---|
C|--1p0-0-0-1p0-0-0-1p0-0-1p0-0-0-1p0-0-0--000---|

Finished!
Tap to rate this tab
# A B C D E F G H I J K L M N O P Q R S T U V W X Y Z