Song name
# A B C D E F G H I J K L M N O P Q R S T U V W X Y Z

Staple - Rise Of The Robots tab

Help us improve GuitareTab! Take a short survey!
Staple
Rise Of The Robots
Tabbed By U B the band
Tuning Drop C

pm-palm mute
\-slide down
f-crescendo
h-hammer
/-slide up

Intro: (Turn your pick sideways as if you’re sawing at the strings)
D|-------------------------------------------------------|
A|-------------------------------------------------------|
F|--7----------------------------------------------------|
C|--6----------------------------------------------------|
G|--5----------------------------------------------------|
C|--0----------------------------------------------------|

Intro Continued (normal strumming)
D|-------------------------------------------------------|
A|-------------------------------------------------------|
F|--77---77777---77---77777---77---77777---77---77777----|
C|--66---66666---66---66666---66---66666---66---66666----|
G|--55---55555---55---55555---55---55555---55---55555----|
C|-------------------------------------------------------|

D|-------------------------------------------------------|
A|-------------------------------------------------------|
F|-----7-------7----7-------7----7-------7----7-------7--|
C|--00-6-00000-6-00-6-00000-6-00-6-00000-6-00-6-00000-6--|
G|--00-5-00000-5-00-5-00000-5-00-5-00000-5-00-5-00000-5--|
C|--00---00000---00---00000---00---00000---00---00000----|
    pm   pmpmpm  pm   pmpmpm  pm   pmpmpm  pm   pmpmpm

D|--------------|
A|--------------|
F|--77---77777--|
C|--66---66666--|
G|--55---55555--|
C|--------------|

Verse 1: (palm muted) on 4th time slowly let pm off
D|------------------------------------------|
A|--3-3--2-2--------------------------------|
F|------------3-3--2-2----------------------|
C|----------------------3-3--2-2--3-3--5-5--|
G|------------------------------------------|
C|------------------------------------------|x4

D|------------------------------------------|
A|--3-3--2-2--------------------------------|
F|------------3-3--2-2----------------------|
C|------------------------------------------|
G|------------------------------------------|
C|----------------------3-3--2-2--3-3--5-5--|x4

Pre-Chorus:
D|------------------------------------------|
A|------------------------------------------|
F|------------------------------------------|
C|--8888-8\7-0-00-00----8888-8\7-0-00-00----|
G|--8888-8\7-0-00-00----8888-8\7-0-00-00----|
C|--8888-8\7-0-00-00-0--8888-8\7-0-00-00-0--|
                     f                   f
Chorus:
D|------------------------------------------|
A|------------------------------------------|
F|------------------------------------------|
C|--8--8-8-8--8--7h8/10--0--0--0------------|
G|--6--6-6-6--8--7h8/10--0--0--5----5h7-----|
C|------------8--7h8/10--0--0--0----5h7-----|
                           pm

D|------------------------------------------|
A|------------------------------------------|
F|------------------------------------------|
C|--8--8-8-8--8--7h8/10---------------------|
G|--6--6-6-6--8--7h8/10--6\5-3h5-6\3-5/6\5--|
C|------------8--7h8/10--0------------------|

Chorus continued:
D|------------------------------------------|
A|------------------------------------------|
F|------------------------------------------|
C|--8--8-8-8--8--7h8/10--0--0--0------------|
G|--6--6-6-6--8--7h8/10--0--0--5----5h7-----|
C|------------8--7h8/10--0--0--0----5h7-----|
                           pm

D|---------------------------------------------------|
A|---------------------------------------------------|
F|-------------------------7-------7----7-------7-7--|
C|--8--8-8-8--8--7h8/10-00-6-00000-6-00-6-00000-6-6--|
G|--6--6-6-6--8--7h8/10-00-5-00000-5-00-5-00000-5-5--|
C|------------8--7h8/10-00---00000---00---00000------|

Verse 2:
D|------------------------------------------|
A|------------------------------------------|
F|--(7)-------------------------------------|
C|--(6)-------------------------------------|
G|--(5)-------------------------------------|
C|---------------------------0--------------|
                             ^-strike hard

D|------------------------------------------|
A|--3-3--2-2--------------------------------|
F|------------3-3--2-2----------------------|
C|------------------------------------------|
G|------------------------------------------|
C|----------------------3-3--2-2--3-3--5-5--|x4

Pre-Chorus:
D|------------------------------------------|
A|------------------------------------------|
F|------------------------------------------|
C|--8888-8\7-0-00-00----8888-8\7-0-00-00----|
G|--8888-8\7-0-00-00----8888-8\7-0-00-00----|
C|--8888-8\7-0-00-00-0--8888-8\7-0-00-00-0--|
                     f                   f 

Chorus:
D|------------------------------------------|
A|------------------------------------------|
F|------------------------------------------|
C|--8--8-8-8--8--7h8/10--0--0--0------------|
G|--6--6-6-6--8--7h8/10--0--0--5----5h7-----|
C|------------8--7h8/10--0--0--0----5h7-----|
                           pm

D|------------------------------------------|
A|------------------------------------------|
F|------------------------------------------|
C|--8--8-8-8--8--7h8/10---------------------|
G|--6--6-6-6--8--7h8/10--6\5-3h5-6\3-5/6\5--|
C|------------8--7h8/10--0------------------|

Chorus continued:
D|------------------------------------------|
A|------------------------------------------|
F|------------------------------------------|
C|--8--8-8-8--8--7h8/10--0--0--0------------|
G|--6--6-6-6--8--7h8/10--0--0--5----5h7-----|
C|------------8--7h8/10--0--0--0----5h7-----|
                           pm

D|-----------------------|
A|-----------------------|
F|-----------------------|
C|--8--8-8-8--8--7h8/10--|
G|--6--6-6-6--8--7h8/10--|
C|------------8--7h8/10--|

Bridge:
D|-----------------------------------------------|
A|-----------------------------------------------|
F|-----------------------------------------------|
C|--5/7-------8\7-5/7---5/7-------8\7/10-101010--|
G|--3/5-xxxxx-6\5-3/5-x-3/5-xxxxx-6\5/8--8-8-8---|
C|------xxxxx---------x-----xxxxx----------------|

D|-----------------------------------------------|
A|-----------------------------------------------|
F|-----------------------------------------------|
C|--5/7-------8\7-5/7---5/7-------8\7/10-101010--|
G|--3/5-xxxxx-6\5-3/5-x-3/5-xxxxx-6\5/8--8-8-8---|
C|------xxxxx---------x-----xxxxx----------------|

Bridge Continued:
D|-----------------------------------------------|
A|-----------------------------------------------|
F|-----------------------------------------------|
C|--5/7-------8\7-5/7---5/7-------8\7/10-101010--|
G|--3/5-00000-6\5-3/5-0-3/5-00000-6\5/8--8-8-8---|
C|------00000---------0-----00000----------------|
        pmpmpm        pm    pmpmpm  

D|-----------------------------------------------|
A|-----------------------------------------------|
F|-----------------------------------------------|
C|--5/7-------8\7-5/7---5/7-------8\7/10-101010--|
G|--3/5-00000-6\5-3/5-0-3/5-00000-6\5/8--8-8-8---|
C|------00000---------0-----00000----------------|
        pmpmpm        pm    pmpmpm

Chorus:
D|------------------------------------------|
A|------------------------------------------|
F|------------------------------------------|
C|--8--8-8-8--8--7h8/10--0--0--0------------|
G|--6--6-6-6--8--7h8/10--0--0--5----5h7-----|
C|------------8--7h8/10--0--0--0----5h7-----|
                           pm

D|------------------------------------------|
A|------------------------------------------|
F|------------------------------------------|
C|--8--8-8-8--8--7h8/10---------------------|
G|--6--6-6-6--8--7h8/10--6\5-3h5-6\3-5/6\5--|
C|------------8--7h8/10--0------------------|

Chorus continued:
D|------------------------------------------|
A|------------------------------------------|
F|------------------------------------------|
C|--8--8-8-8--8--7h8/10--0--0--0------------|
G|--6--6-6-6--8--7h8/10--0--0--5----5h7-----|
C|------------8--7h8/10--0--0--0----5h7-----|
                           pm

D|-----------------------|
A|-----------------------|
F|-----------------------|
C|--8--8-8-8--8--7h8/10--|
G|--6--6-6-6--8--7h8/10--|
C|------------8--7h8/10--|

Outro
D|-------------------------------------------------------|
A|-------------------------------------------------------|
F|-----7-------7----7-------7----7-------7----7-------7--|
C|--00-6-00000-6-00-6-00000-6-00-6-00000-6-00-6-00000-6--|
G|--00-5-00000-5-00-5-00000-5-00-5-00000-5-00-5-00000-5--|
C|--00---00000---00---00000---00---00000---00---00000----|
    pm   pmpmpm  pm   pmpmpm  pm   pmpmpm  pm   pmpmpm

D|-------------------------------------------------------|
A|-------------------------------------------------------|
F|-----7-------7----7-------7----7-------7----7-------7--|
C|--00-6-00000-6-00-6-00000-6-00-6-00000-6-00-6-00000-6--|
G|--00-5-00000-5-00-5-00000-5-00-5-00000-5-00-5-00000-5--|
C|--00---00000---00---00000---00---00000---00---00000----|
    pm   pmpmpm  pm   pmpmpm  pm   pmpmpm  pm   pmpmpm

D|-------------------------------------------------------|
A|-------------------------------------------------------|
F|--77---77777---77---77777---77---77777---77---77777----|
C|--66---66666---66---66666---66---66666---66---66666----|
G|--55---55555---55---55555---55---55555---55---55555----|
C|-------------------------------------------------------|

Intro into "Deathtrap Daisy" (low volume and fuzz)
D|-----------------------------------------------|
A|-----------------------------------------------|
F|-----------------------------------------------|
C|-----------------------------------------------|
G|-----------------------------------------------|
C|--1p0--0--0--0--0--1p0--1p0--0--0--0--0--1p0---|

D|-----------------------------------------------|
A|-----------------------------------------------|
F|-----------------------------------------------|
C|-----------------------------------------------|
G|-----------------------------------------------|
C|--1p0--0--0--0--0--1p0--1p0--0--0--0--0000-00--|
                                        pmpm

Finished!
Related for Rise Of The Robots tab