Song name
# A B C D E F G H I J K L M N O P Q R S T U V W X Y Z

Star Fucking Hipsters - This Wal Mart Life tab

-------------------------------------------------------------------------------
This Wal-Mart Life - Star Fucking Hipsters
Until We're Dead
-------------------------------------------------------------------------------
Star Fucking Hipsters Website: http://www.starfuckinghipsters.com

Tabbed by: axeslash
Email: holmzito@yahoo.com

Tuning: Standard for all guitars

Guitar 1:
e|-4--4-4--4-4-4-4--4-4--4-4-4-4--4-4--4-4-4-4--4-4--4-4-4-|
B|-4--4-4--4-4-4-4--4-4--4-4-4-4--4-4--4-4-4-4--4-4--4-4-4-|
G|-5--5-5--5-5-5-5--5-5--5-5-5-5--5-5--5-5-5-5--5-5--5-5-5-|
D|-6--6-6--6-6-6-6--6-6--6-6-6-6--6-6--6-6-6-6--6-6--6-6-6-|
A|-6--6-6--6-6-6-6--6-6--6-6-6-6--6-6--6-6-6-6--6-6--6-6-6-|
E|-4--4-4--4-4-4-4--4-4--4-4-4-4--4-4--4-4-4-4--4-4--4-4-4-| x2

Guitars 2 & 3:
e|-----------------------------------------------------------------|
B|-----------------------------------------------------------------|
G|---------------------------------5-5-5-5-5-5-5-5-5-5-5-5-5-5-5-5-|
D|-6-6-6-6-6-6-6-6-6-6-6-6-6-6-6-6-5-5-5-5-5-5-5-5-5-5-5-5-5-5-5-5-|
A|-6-6-6-6-6-6-6-6-6-6-6-6-6-6-6-6-3-3-3-3-3-3-3-3-3-3-3-3-3-3-3-3-|
E|-4-4-4-4-4-4-4-4-4-4-4-4-4-4-4-4---------------------------------|
  [X-X-X-X-X-X-X-X-X-X-X-X-X-X-X-X-X-X-X-X-X-X-X-X-X-X-X-X-X-X-X-X]

Guitars 2 & 3:
e|-----------------------------------------------------------------|
B|-----------------------------------------------------------------|
G|-6-6-6-6-6-6-6-6-6-6-6-6-6-6-6-6-3-3-3-3-3-3-3-3-3-3-3-3-3-3-3-3-|
D|-6-6-6-6-6-6-6-6-6-6-6-6-6-6-6-6-3-3-3-3-3-3-3-3-3-3-3-3-3-3-3-3-|
A|-4-4-4-4-4-4-4-4-4-4-4-4-4-4-4-4-1-1-1-1-1-1-1-1-1-1-1-1-1-1-1-1-|
E|-----------------------------------------------------------------|
  [X-X-X-X-X-X-X-X-X-X-X-X-X-X-X-X-X-X-X-X-X-X-X-X-X-X-X-X-X-X-X-X]

Guitars 2 & 3:
e|-----------------------------------------------------------------|
B|-----------------------------------------------------------------|
G|---------------------------------5-5-5-5-5-5-5-5-5-5-5-5-5-5-5-5-|
D|-6-6-6-6-6-6-6-6-6-6-6-6-6-6-6-6-5-5-5-5-5-5-5-5-5-5-5-5-5-5-5-5-|
A|-6-6-6-6-6-6-6-6-6-6-6-6-6-6-6-6-3-3-3-3-3-3-3-3-3-3-3-3-3-3-3-3-|
E|-4-4-4-4-4-4-4-4-4-4-4-4-4-4-4-4---------------------------------|
  [X-X-X-X-X-X-X-X-X-X-X-X-X-X-X-X-X-X-X-X-X-X-X-X-X-X-X-X-X-X-X-X]

Guitars 2 & 3:
e|---------------------------------------------------------|
B|---------------------------------3--3--3--3--3--3--3--3--|
G|-6-6-6-6-6-6-6-6-6-6-6-6-6-6-6-6-3--3--3--3--3--3--3--3--|
D|-6-6-6-6-6-6-6-6-6-6-6-6-6-6-6-6-3--3--3--3--3--3--3--3--|
A|-4-4-4-4-4-4-4-4-4-4-4-4-4-4-4-4-1--1--1--1--1--1--1--1--|
E|---------------------------------------------------------|
  [X-X-X-X-X-X-X-X-X-X-X-X-X-X-X-X]

Guitars 2 & 3:
e|------------------------------------------------|
B|--------------5----5----6--6--6--6--6--6--6--6--|
G|-5--5-5----5--5----5----6--6--6--6--6--6--6--6--|
D|-6--6-6----6--5----5----6--6--6--6--6--6--6--6--|
A|-6--6-6----6--3----3----4--4--4--4--4--4--4--4--|
E|-4--4-4----4------------------------------------| x3

Guitars 2 & 3:
e|------------------------------------------------|
B|--------------5----5----6--6--6--6--8--8--8--8--|
G|-5--5-5----5--5----5----6--6--6--6--8--8--8--8--|
D|-6--6-6----6--5----5----6--6--6--6--8--8--8--8--|
A|-6--6-6----6--3----3----4--4--4--4--6--6--6--6--|
E|-4--4-4----4------------------------------------|

Guitars 2 & 3:
e|-----------------------------------------------------------------|
B|-----------------------------------------------------------------|
G|---------------------------------5-5-5-5-5-5-5-5-5-5-5-5-5-5-5-5-|
D|-6-6-6-6-6-6-6-6-6-6-6-6-6-6-6-6-5-5-5-5-5-5-5-5-5-5-5-5-5-5-5-5-|
A|-6-6-6-6-6-6-6-6-6-6-6-6-6-6-6-6-3-3-3-3-3-3-3-3-3-3-3-3-3-3-3-3-|
E|-4-4-4-4-4-4-4-4-4-4-4-4-4-4-4-4---------------------------------|
  [X-X-X-X-X-X-X-X-X-X-X-X-X-X-X-X-X-X-X-X-X-X-X-X-X-X-X-X-X-X-X-X]

Guitars 2 & 3:
e|-----------------------------------------------------------------|
B|-----------------------------------------------------------------|
G|-6-6-6-6-6-6-6-6-6-6-6-6-6-6-6-6-3-3-3-3-3-3-3-3-3-3-3-3-3-3-3-3-|
D|-6-6-6-6-6-6-6-6-6-6-6-6-6-6-6-6-3-3-3-3-3-3-3-3-3-3-3-3-3-3-3-3-|
A|-4-4-4-4-4-4-4-4-4-4-4-4-4-4-4-4-1-1-1-1-1-1-1-1-1-1-1-1-1-1-1-1-|
E|-----------------------------------------------------------------|
  [X-X-X-X-X-X-X-X-X-X-X-X-X-X-X-X-X-X-X-X-X-X-X-X-X-X-X-X-X-X-X-X]

Guitars 2 & 3:
e|-----------------------------------------------------------------|
B|-----------------------------------------------------------------|
G|---------------------------------5-5-5-5-5-5-5-5-5-5-5-5-5-5-5-5-|
D|-6-6-6-6-6-6-6-6-6-6-6-6-6-6-6-6-5-5-5-5-5-5-5-5-5-5-5-5-5-5-5-5-|
A|-6-6-6-6-6-6-6-6-6-6-6-6-6-6-6-6-3-3-3-3-3-3-3-3-3-3-3-3-3-3-3-3-|
E|-4-4-4-4-4-4-4-4-4-4-4-4-4-4-4-4---------------------------------|
  [X-X-X-X-X-X-X-X-X-X-X-X-X-X-X-X-X-X-X-X-X-X-X-X-X-X-X-X-X-X-X-X]

Guitars 2 & 3:
e|---------------------------------------------------------|
B|---------------------------------3--3--3--3--3--3--3--3--|
G|-6-6-6-6-6-6-6-6-6-6-6-6-6-6-6-6-3--3--3--3--3--3--3--3--|
D|-6-6-6-6-6-6-6-6-6-6-6-6-6-6-6-6-3--3--3--3--3--3--3--3--|
A|-4-4-4-4-4-4-4-4-4-4-4-4-4-4-4-4-1--1--1--1--1--1--1--1--|
E|---------------------------------------------------------|
  [X-X-X-X-X-X-X-X-X-X-X-X-X-X-X-X]

Guitars 2 & 3:
e|------------------------------------------------|
B|--------------5----5----6--6--6--6--6--6--6--6--|
G|-5--5-5----5--5----5----6--6--6--6--6--6--6--6--|
D|-6--6-6----6--5----5----6--6--6--6--6--6--6--6--|
A|-6--6-6----6--3----3----4--4--4--4--4--4--4--4--|
E|-4--4-4----4------------------------------------| x3

Guitars 2 & 3:
e|------------------------------------------------|
B|--------------5----5----6--6--6--6--8--8--8--8--|
G|-5--5-5----5--5----5----6--6--6--6--8--8--8--8--|
D|-6--6-6----6--5----5----6--6--6--6--8--8--8--8--|
A|-6--6-6----6--3----3----4--4--4--4--6--6--6--6--|
E|-4--4-4----4------------------------------------|

Guitars 2 & 3:
e|-3--3--3--3--3--3--3--3--3--4--4--4--4--4--4--4--4--|
B|-4--4--4--4--4--4--4--4--4--4--4--4--4--4--4--4--4--|
G|-5--5--5--5--5--5--5--5--5--5--5--5--5--5--5--5--5--|
D|-5--5--5--5--5--5--5--5--5--6--6--6--6--6--6--6--6--|
A|-3--3--3--3--3--3--3--3--3--6--6--6--6--6--6--6--6--|
E|----------------------------4--4--4--4--4--4--4--4--| x3

Guitars 2 & 3:
e|-3--3-3----3--3--3-3----3----------------------------|
B|-4--4-4----4--4--4-4----4--6--6-6----6--6--6-6----6--|
G|-5--5-5----5--5--5-5----5--6--6-6----6--6--6-6----6--|
D|-5--5-5----5--5--5-5----5--6--6-6----6--6--6-6----6--|
A|-3--3-3----3--3--3-3----3--4--4-4----4--4--4-4----4--|
E|-----------------------------------------------------|

Guitars 2 & 3:
e|-3--3-3----3--3--3-3----3----------------------------|
B|-4--4-4----4--4--4-4----4--6--6-6----6--8--8-8----8--|
G|-5--5-5----5--5--5-5----5--6--6-6----6--8--8-8----8--|
D|-5--5-5----5--5--5-5----5--6--6-6----6--8--8-8----8--|
A|-3--3-3----3--3--3-3----3--4--4-4----4--6--6-6----6--|
E|-----------------------------------------------------|

Guitars 2 & 3:
e|-4--4--4--4--4--4--4--4--3--3--3--3--3--3--3--3--3--|
B|-4--4--4--4--4--4--4--4--4--4--4--4--4--4--4--4--4--|
G|-5--5--5--5--5--5--5--5--5--5--5--5--5--5--5--5--5--|
D|-6--6--6--6--6--6--6--6--5--5--5--5--5--5--5--5--5--|
A|-6--6--6--6--6--6--6--6--3--3--3--3--3--3--3--3--3--|
E|-4--4--4--4--4--4--4--4-----------------------------| x4

Guitars 2 & 3:
e|-----------------------------------------------------------------|
B|-----------------------------------------------------------------|
G|---------------------------------5-5-5-5-5-5-5-5-5-5-5-5-5-5-5-5-|
D|-6-6-6-6-6-6-6-6-6-6-6-6-6-6-6-6-5-5-5-5-5-5-5-5-5-5-5-5-5-5-5-5-|
A|-6-6-6-6-6-6-6-6-6-6-6-6-6-6-6-6-3-3-3-3-3-3-3-3-3-3-3-3-3-3-3-3-|
E|-4-4-4-4-4-4-4-4-4-4-4-4-4-4-4-4---------------------------------|
  [X-X-X-X-X-X-X-X-X-X-X-X-X-X-X-X-X-X-X-X-X-X-X-X-X-X-X-X-X-X-X-X]

Guitars 2 & 3:
e|-----------------------------------------------------------------|
B|-----------------------------------------------------------------|
G|-6-6-6-6-6-6-6-6-6-6-6-6-6-6-6-6-3-3-3-3-3-3-3-3-3-3-3-3-3-3-3-3-|
D|-6-6-6-6-6-6-6-6-6-6-6-6-6-6-6-6-3-3-3-3-3-3-3-3-3-3-3-3-3-3-3-3-|
A|-4-4-4-4-4-4-4-4-4-4-4-4-4-4-4-4-1-1-1-1-1-1-1-1-1-1-1-1-1-1-1-1-|
E|-----------------------------------------------------------------|
  [X-X-X-X-X-X-X-X-X-X-X-X-X-X-X-X-X-X-X-X-X-X-X-X-X-X-X-X-X-X-X-X]

Guitars 2 & 3:
e|-----------------------------------------------------------------|
B|-----------------------------------------------------------------|
G|---------------------------------5-5-5-5-5-5-5-5-5-5-5-5-5-5-5-5-|
D|-6-6-6-6-6-6-6-6-6-6-6-6-6-6-6-6-5-5-5-5-5-5-5-5-5-5-5-5-5-5-5-5-|
A|-6-6-6-6-6-6-6-6-6-6-6-6-6-6-6-6-3-3-3-3-3-3-3-3-3-3-3-3-3-3-3-3-|
E|-4-4-4-4-4-4-4-4-4-4-4-4-4-4-4-4---------------------------------|
  [X-X-X-X-X-X-X-X-X-X-X-X-X-X-X-X-X-X-X-X-X-X-X-X-X-X-X-X-X-X-X-X]

Guitars 2 & 3:
e|---------------------------------------------------------|
B|---------------------------------3--3--3--3--3--3--3--3--|
G|-6-6-6-6-6-6-6-6-6-6-6-6-6-6-6-6-3--3--3--3--3--3--3--3--|
D|-6-6-6-6-6-6-6-6-6-6-6-6-6-6-6-6-3--3--3--3--3--3--3--3--|
A|-4-4-4-4-4-4-4-4-4-4-4-4-4-4-4-4-1--1--1--1--1--1--1--1--|
E|---------------------------------------------------------|
  [X-X-X-X-X-X-X-X-X-X-X-X-X-X-X-X]

Guitars 2 & 3:
e|------------------------------------------------|
B|--------------5----5----6--6--6--6--6--6--6--6--|
G|-5--5-5----5--5----5----6--6--6--6--6--6--6--6--|
D|-6--6-6----6--5----5----6--6--6--6--6--6--6--6--|
A|-6--6-6----6--3----3----4--4--4--4--4--4--4--4--|
E|-4--4-4----4------------------------------------| x3

Guitars 2 & 3:
e|------------------------------------------------|
B|--------------5----5----6--6--6--6--8--8--8--8--|
G|-5--5-5----5--5----5----6--6--6--6--8--8--8--8--|
D|-6--6-6----6--5----5----6--6--6--6--8--8--8--8--|
A|-6--6-6----6--3----3----4--4--4--4--6--6--6--6--|
E|-4--4-4----4------------------------------------|

Guitars 2 & 3:
e|-3--3--3--3--3--3--3--3--3--4--4--4--4--4--4--4--4--|
B|-4--4--4--4--4--4--4--4--4--4--4--4--4--4--4--4--4--|
G|-5--5--5--5--5--5--5--5--5--5--5--5--5--5--5--5--5--|
D|-5--5--5--5--5--5--5--5--5--6--6--6--6--6--6--6--6--|
A|-3--3--3--3--3--3--3--3--3--6--6--6--6--6--6--6--6--|
E|----------------------------4--4--4--4--4--4--4--4--| x3

Guitars 2 & 3:
e|-3--3-3----3--3--3-3----3----------------------------|
B|-4--4-4----4--4--4-4----4--6--6-6----6--6--6-6----6--|
G|-5--5-5----5--5--5-5----5--6--6-6----6--6--6-6----6--|
D|-5--5-5----5--5--5-5----5--6--6-6----6--6--6-6----6--|
A|-3--3-3----3--3--3-3----3--4--4-4----4--4--4-4----4--|
E|-----------------------------------------------------|

Guitars 2 & 3:
e|-3--3-3----3--3--3-3----3----------------------------|
B|-4--4-4----4--4--4-4----4--6--6-6----6--8--8-8----8--|
G|-5--5-5----5--5--5-5----5--6--6-6----6--8--8-8----8--|
D|-5--5-5----5--5--5-5----5--6--6-6----6--8--8-8----8--|
A|-3--3-3----3--3--3-3----3--4--4-4----4--6--6-6----6--|
E|-----------------------------------------------------|

Guitars 2 & 3:
e|-4--4--4--4--4--4--4--4--3--3--3--3--3--3--3--3--3--|
B|-4--4--4--4--4--4--4--4--4--4--4--4--4--4--4--4--4--|
G|-5--5--5--5--5--5--5--5--5--5--5--5--5--5--5--5--5--|
D|-6--6--6--6--6--6--6--6--5--5--5--5--5--5--5--5--5--|
A|-6--6--6--6--6--6--6--6--3--3--3--3--3--3--3--3--3--|
E|-4--4--4--4--4--4--4--4-----------------------------| x3

Guitars 2 & 3:
e|-4--4--4--4--4--4--4--4--3--3--3--3--3--3--3--3--3--4--------4\----|
B|-4--4--4--4--4--4--4--4--4--4--4--4--4--4--4--4--4--4--------4\----|
G|-5--5--5--5--5--5--5--5--5--5--5--5--5--5--5--5--5--5--------5\----|
D|-6--6--6--6--6--6--6--6--5--5--5--5--5--5--5--5--5--6--------6\----|
A|-6--6--6--6--6--6--6--6--3--3--3--3--3--3--3--3--3--6--------6\----|
E|-4--4--4--4--4--4--4--4-----------------------------4--------4\----|


|[X] palm mute
| /  slide up
| \  slide down
| h  hammer-on
| p  pull-off
| ~  vibrato
| +  harmonic
| x  Mute note
===============================================================================
Tap to rate this tab
 
# A B C D E F G H I J K L M N O P Q R S T U V W X Y Z