Song name
# A B C D E F G H I J K L M N O P Q R S T U V W X Y Z

Star Fucking Hipsters - Snitch To The Suture tab

-------------------------------------------------------------------------------
		Snitch to the Suture - Star Fucking Hipsters
-------------------------------------------------------------------------------
Tabbed by: Josh
Email: Special.brew@hotmail.com

Tuning: Tuned down half a step

d#|---------------------------------------------------------------------------|
A#|---------------------------------------------------------------------------|
F#|---------------------------------------------------------------------------|
C#|--------2----------------------------2----------5-4------------------------|
G#|----2-3----3-2-3-2--------2------2-3----3-2-3-2----------------------------|
D#|-3-----------------5-3--5-----3--------------------------------------------|


d#|---------------------------------------------------------------------------|
A#|---------------------------------------------------------------------------|
F#|---------------------------------------------------------------------------|
C#|--------2---------------------------2-----------5-4------------------------|
G#|----2-3----3-2-3-2--------2------3-----3----3-2----------------------------|
D#|-3-----------------5-3--5-----3--------------------------------------------|


Couldn't find a tab for this anywhere so i had a go at it myself.
All questions, comments and corrections are welcome.

===============================================================================
Tap to rate this tab
# A B C D E F G H I J K L M N O P Q R S T U V W X Y Z