Song name
# A B C D E F G H I J K L M N O P Q R S T U V W X Y Z

Star Fucking Hipsters - Zombie Christ tab

tabbed by Stephen Mayer
Stephenmayer92@myspace.com

Star Fucking Hipsters
Zombie Christ
Just the intro. 
Tuning: Drop D




|----------------------------------------------|
|----------------------------------------------|
|-55----------------------88-------------------|
|-55-2-3-5----66----------88-5-6-8----88-------|   
|-33----------66-6-5-3----66----------88-8-6-5-|
|-------------66----------------------88-------|

|----------------------------------------------|
|----------------------------------------------|
|-55----------------------88-------------------|
|-55-2-3-5----66----------88-5-6-8----88888----|   
|-33----------66-6-5-3----66----------88888----|
|-------------66----------------------88888----|

|-------------------------------------------------------------|
|-------------------------------------------------------------|
|-88888(8)-~-1010101010(10)-~-1212121212(12)-~-1313131313(13)-|
|-88888(8)-~-1010101010(10)-~-1212121212(12)-~-1313131313(13)-|
|-66666(6)-~-8-8-8-8-8-(8)--~-1010101010(10)-~-1313131313(13)-|
|-------------------------------------------------------------|

If someone could tab the rest and post it that would be great.
thank you
Tap to rate this tab
 
# A B C D E F G H I J K L M N O P Q R S T U V W X Y Z