Star Fucking Hipsters - Empty Lives tab

I'm playing this all from ear, so it might not be as accurate.

     slide       slide            play on down beat
|-----------------------------|----------------------|
|-----------------------------|----------------------|
|---8------4-----11----6------|----------------------|
|---8------4-----11----6------|----4-----------------|
|---5------2-----9-----4------|----4-----------------|
|-----------------------------|----2-----------------|
    play this twice

|-------------------------------------------------------|
|-------------------------------------------------------|
|-------------------------------------------------------|
|---8-8-8-8-x16---4-4-4-4-x16-------------6-6-6-6-------| x2
|---6-6-6-6-------2-2-2-2---4-4-4-4-x16---4-4-4-4-x16---|
|---------------------------2-2-2-2---------------------|
 ............palm mute.............................

|-------------------------------------------------|
|-------------------------------------------------|
|-------------------------------------------------|
|-------------------------------------------------|
|---4-x16--9-x16--11-x16--13-x8--15-x4--16-x8-----|
|---2------7------9-------11-----13-----14--------|
 ............palm mute...........................

|-------------------------------------------------|
|-------------------------------------------------|
|-------------------------------------------------|
|-------------------------------------------------|
|--9-x16--11-x16--9-x16---------------------------|
|--7------9-------7-------------------------------|

  distortion part
|-------------------------------------------------------|
|-------------------------------------------------------|
|---8-8-8-8-------4-4-4-4-------------------6-6-6-6-----|
|---8-8-8-8-x16---4-4-4-4-x16-4-4-4-4-------6-6-6-6-----|
|---6-6-6-6-------2-2-2-2-----4-4-4-4-x16---4-4-4-4-x16-|
|-----------------------------2-2-2-2-------------------|

|-------------------------------------------------|
|-------------------------------------------------|
|-------------------------------------------------|
|-------------------------------------------------|
|---4-x16--9-x16--11-x16-------13--15--16---------|
|---2------7------9------------11--13--14---------|
 ............palm mute...  slide up | slide down

 
|-------------------------------------------------------|
|-------------------------------------------------------|
|---8-8-8-8-------4-4-4-4-------------------6-6-6-6-----|
|---8-8-8-8-x16---4-4-4-4-x16-4-4-4-4-------6-6-6-6-----| x4
|---6-6-6-6-------2-2-2-2-----4-4-4-4-x16---4-4-4-4-x16-|
|-----------------------------2-2-2-2-------------------|

  ending
|--------------|
|--------------|
|--------------|
|--4--------4--|
|--4--------4--|
|--2--------2--|
 *****hold  . play on down beat
Tap to rate this tab
 
# A B C D E F G H I J K L M N O P Q R S T U V W X Y Z