Song name
# A B C D E F G H I J K L M N O P Q R S T U V W X Y Z

Star Fucking Hipsters - Volume Ii tab

Band - Star Fucking Hipsters
Song - Volume II
Album - Never Rest In Peace

Tabbed By: SumFX (Tyler Freear)

Tuning: Eb (Eb Ab Db Gb Bb Eb)

Cracking Intro Track Which Is Pretty Much Grindcore (0.17 Seconds Long!)
It Really Shows That 'Never....'  Will Be More Of A Metal Album.

I Have Tabbed Guitar 1 (Left Speaker) & Guitar 2 (Right Speaker)
Guitar 1 On Top
Guitar 2 At Bottom

.=Palm Mute

-----------------------------------------------------------------------------
                                Guitar 1

Intro
|-0------------------|
|-0------------------|
|-9------------------|
|-9---Feedback-------|
|-7------------------|
|-0------------------|

Main Riff
|-----------------|
|-----------------|
|-9999-1111-1212--|
|-9999-1111-1212--| X4
|-7777-9-9--1010--|
|-----------------|

|-------------|
|-------------|
|-------------|
|-2222-44-55--| X3
|-2222-44-55--|
|-0000-22-33--|

Outro
|------------|
|------------|
|------------|
|-22-4-5-2---|
|-22-4-5-2---|
|-00-2-3-0---|
  .. . . .

----------------------------------------------------------------------------
                              Guitar 2

Intro 
|-0------------------|
|-0------------------|
|-0------------------|
|-2---Feedback-------|
|-2------------------|
|-0------------------|

Main Riff
|-------------|
|-------------|
|-------------| x7
|-2222-44-55--|
|-2222-44-55--|
|-0000-22-33--|

Outro
|------------|
|------------|
|------------|
|-22-4-5-2---|
|-22-4-5-2---|
|-00-2-3-0---|
  .. . . .

And Thats It, No Need For A Structure!

Rate & Comment Please!
Tap to rate this tab
 
# A B C D E F G H I J K L M N O P Q R S T U V W X Y Z