Song name
# A B C D E F G H I J K L M N O P Q R S T U V W X Y Z

Star Fucking Hipsters - Banned From The Land tab

Band - Star Fucking Hipsters
Song - Banned From The Land
Album - Never Rest In Peace

Tabbed By: SumFX (Tyler Freear)

Tuning: Eb (Eb Ab Db Gb Bb Eb)

Just.....A Freakin' Awesome Track!
The Verse Riff Might Take Some Time To Master,
Just Take It Slow At First And Build Up Speed.

The Only Difference Between The Two Guitars Is The Intro, Enjoy!

.=Palm Mute
h=Hammer On
p=Pull Off

Intro Guitar 1
|---------------------|
|---------------------|
|-4----7-----10----16-|
|-x----x-----x-----x--|
|-2----5-----8-----14-|
|---------------------|

Intro Guitar 2
Comes In At:0.06 & 1.08
|------------------------------------------------------|
|------------------------------------------------------|
|------------------------------------------------------|
|----------------------5-4-----------------------------|
|-2-4-5-4-2-4--2-4-5-4------2-4-5-4-2-4--2-2-2-2-2-2-2-|
|------------------------------------------------------|
  . . . . . .  . . . . . .  . . . . . .  . . . . . . .

|-------------------------------------------|
|-------------------------------------------|
|-------------------------------------------|
|----------------------5-4------------------|
|-2-4-5-4-2-4--2-4-5-4------2-4-5-4-2-4--2--|
|-------------------------------------------|
  . . . . . .  . . . . . .  . . . . . .  .

Verse
|---------------------|--------------------------|
|---------------------|--------------------------|
|-4-6-7---------------|-4-6-7--------------------|
|-4-6-7-5-4h5-4h5p4---|-4-6-7-5---------------2--|
|-2-4-5-5----------5--|-2-4-5-5-----------2-3----|
|-------3-------------|-------3--33-2-3-5--------|
                                 .. . . . . . .

|---------------------|-------------------------|
|---------------------|-------------------------|
|-4-6-7---------------|-------------------------|
|-4-6-7-5-4h5-4h5p4---|----------------4-5-2-4--|
|-2-4-5-5----------5--|-22-1-2-4-2-1-2----------|
|-------3-------------|-------------------------|
                        .. . . . . . . 

Bridge
|-------------------------------------|------------------------------------|
|-------------------------------------|------------------------------------|
|-44444444-33333333-66666666-77777777-|-44444444-66666666-88888888-99-1111-|
|-xxxxxxxx-xxxxxxxx-xxxxxxxx-xxxxxxxx-|-xxxxxxxx-xxxxxxxx-xxxxxxxx-xx-x-x--|
|-22222222-11111111-44444444-55555555-|-22222222-44444444-66666666-77-9-9--|
|-------------------------------------|------------------------------------|

Post Verse
|--------|
|--------|
|-----3--|
|-4-5----|
|--------|
|--------|

Structure
Intro
Verse
Bridge
Verse
Post Verse
Intro

What A Brilliant Track!
Rate & Comment Please!
Tap to rate this tab
 
# A B C D E F G H I J K L M N O P Q R S T U V W X Y Z