Song name
# A B C D E F G H I J K L M N O P Q R S T U V W X Y Z

Star Mazzy - Into Dust tab

Help us improve GuitareTab! Take a short survey!
#----------------------------------PLEASE NOTE--------------------------------#
#This file is the author's own work and represents their interpretation of the#
#song. You may only use this file for private study, scholarship, or research.#
#-----------------------------------------------------------------------------#
#-- File created with Instab - http://www.pconline.com/~smcarey/instab.html --#
#-----------------------------------------------------------------------------#

Author/Artist: Mazzy Star
Title: Into Dust
Album: So Tonight That I Might See
Transcribed by: Loki
Email: epicurus_81@yahoo.com

this tab is not fully complete, but more so than the other one. I don't have the
changes near the end, if someone has 'em email to me.
Listen to the track to get the timing and how many times to play each part.

Tuning is standard.

Let the bottom notes ring throughout to give it that trance-like effect.

-------------------------------------------------------------------|----------|
---3---3---3---3---3---3--3---3---3---3---3---3---3---3---3---3----|----------|
-----2-------2-------2------2-------0-------0-------0-------0------|----------|
-0-------0-------0------0---------------------------------------0--|----------|
--------------------------------3-------3-------2-------2----------|----------|
-------------------------------------------------------------------|----------|
 repeat the above however many times; it goes through the verse & chorus.

------------------------------------------------------------------------------|
---3---3---3---3---3---3---3---3----------------------------------------------|
-----2-------2-------0-------0------------------------------------------------|
-3-------3-------2-------2----------------------------------------------------|
------------------------------------------------------------------------------|
------------------------------------------------------------------------------|
 here's the part after she says "til my hand shook with  the way I fear".
Related for Into Dust tab