Song name
# A B C D E F G H I J K L M N O P Q R S T U V W X Y Z

Stardog Champion - When We Fall tab

Intro riff 1
3x
d#--------------------------------------------------------|
a#--------------------------------------------------------|
f#--------------------------------------------------------|
c#-----------------------------3--------------------------|
g#--------------------------3h5p-5h3p-0-3-0---------------|
C#-3-0-0-0--0----3-0-0-0--0--------------5h3p-5h7p-5h3p-0-|

Intro riff 2
1x
---------------------------------------------------------|
---------------------------------------------------------|
---------------------------------------------------------|
-----------------------------3h5p-5-5-5h3p---------------|
-------------------------3h5p-------------3h5p-5-5-5-----|
-3-0-0-0--0----3-0-0-0--0---------------------------7h3p-|

then comes Guitar 2
-5-5-5-5-5-5-5-5-5-5-5-5-5-5-5-5-5-5-3-3-3-5-5-8-8-8-8-8-8-8-8-8-8-10-10-|
-------------------------------------------------------------------------|
-------------------------------------------------------------------------|
-------------------------------------------------------------------------|
-------------------------------------------------------------------------|
-------------------------------------------------------------------------|
continue
-7-7-7-7-7-7-7-7-7-7-7-7-7-|
---------------------------|
---------------------------|
---------------------------|
---------------------------|
---------------------------|

Verse
4x
------------|
------------|
------------|
------------|
------------|
-3-0-0-0--0-|

In the end of the verse
---------------------------|
---------------------------|
---------------------------|
-/5-5-5-5h3p---------------|
------------3h5p-5-5-5-----|
----------------------7h3p-|

Pre-Chorus
-----------------------------------------------------------------------------|
-----------------------------------------------------------------------------|
-----------------------------------------------------------------------------|
-----------------------------------------------------------------------------|
-----------------------------------------------------------------------------|
-3-0-3-0-3-0-3-0-3-0-3-0-3-0-3-5-0-5-0-5-0-5-0-5-0-5-0-5-0-7-0-8-0-8-0-8-0-8-|
continue
-----------------------------------------------------------|
-----------------------------------------------------------|
-----------------------------------------------------------|
---------------------------------------x-x-x-x-x-x-x-x-x-x-|
---------------------------------------x-x-x-x-x-x-x-x-x-x-|
-0-8-0-8-0-8-0-8-0-10-0-10-0-10-10-0-7-x-x-x-x-x-x-x-x-x-x-|

Chorus
-----------------------------------------------------------------------------|
-----------------------------------------------------------------------------|
-----------------------------------------------------------------------------|
-0--3--5--8--0--3--8--------------x-x--0--3--8--10--0--3--8--------------x-x-|
-0--3--5--8--0--3--8--------------x-x--0--3--8--10--0--3--8--------------x-x-|
-0--3--5--8--0--3--8--7-7---7-8-7-x-x--0--3--8--10--0--3--8--7-7---7-8-7-x-x-|
Post Chorus
The same as the two last intro!!!

Verse 2
The same thing with little changes!!!

Guitar 2 while guitar 1 does the normal
-------------------------------------------------|
-------------------------------------------------|
-------------------------------------------------|
-x-x-x-x-x-x-x-x-x-x-x-x-x-x-x-x-x-x-x-x-x-x-x-x-|
-x-x-x-x-x-x-x-x-x-x-x-x-x-x-x-x-x-x-x-x-x-x-x-x-|
-x-x-x-x-x-x-x-x-x-x-x-x-x-x-x-x-x-x-x-x-x-x-x-x-|

---------------------------------|
---------------------------------|
---------------------------------|
-----3---------------------------|
-3h5p-5h3p-0-3-0-----------------|
----------------5h3p-5h7p-5h3p-0-|

Pre chorus

-----------------------------------------------------------------------------|
-----------------------------------------------------------------------------|
-----------------------------------------------------------------------------|
-----------------------------------------------------------------------------|
-----------------------------------------------------------------------------|
-3-0-3-0-3-0-3-0-3-0-3-0-3-0-3-5-0-5-0-5-0-5-0-5-0-5-0-5-0-7-0-8-0-8-0-8-0-8-|
continue
-----------------------------------------------------------------|
-----------------------------------------------------------------|
-----------------------------------------------------------------|
-----------------------------------------------------------------|
-----------------------------------------------------------------|
-0-8-0-8-0-8-0-8-0-10-0-10-0-10-10-0-11-0-11-0-11-0-11-0-11-0-11-|

Chorus again

Post chorus

---
---
---
-0~
-0~
-0~

Bridge

Guitar 1
With some delay
-----------------------------------------|
-10--8--11--10--8----10--8--11--10--6--5-|
-----------------------------------------|
-----------------------------------------|
-----------------------------------------|
-----------------------------------------|

-----------------------------------------|
-10--8--11--10--8----10--8--11--10--8--6-|
-----------------------------------------|
-----------------------------------------|
-----------------------------------------|
-----------------------------------------|

Guitar 2
delay too

-------------------------------------------------|
-15----13--15----13--15----13--17-17-17b18-18-18-|
-----14--------14--------14----------------------|
-------------------------------------------------|
-------------------------------------------------|
-------------------------------------------------|
-------------------------------------------------|

Chorus

The outro is the same thing as the intro but without the guitar 2!!!

Hope u like it, rate and enjoy!;)
Tap to rate this tab
# A B C D E F G H I J K L M N O P Q R S T U V W X Y Z