Song name
# A B C D E F G H I J K L M N O P Q R S T U V W X Y Z

Stare Dobre Malzenstwo - Modlitwa Konca Mojego Wieku tab

Stare Dobre Malzenstwo
( http://www.sdm.art.pl/sdm/index.php )
Modlitwa konca mojego wieku (solo)
Standard tuning

E-------------------------7--------------------|
B-10p8h10-10p8--7--8--10--------10--8--7-------|
G----------------------------------------------|
D----------------------------------------------|
A----------------------------------------------|
E----------------------------------------------|

E----------------------------------------------|
B-8p7--------------7-8-10--8--7----------------|
G-----9----9p7h9-----------------9--7----------|
D----------------------------------------------|
A----------------------------------------------|
E----------------------------------------------|

E----------------------------------7-----------|
B----------7-----7--10---8--7---8-----10-------|
G-9--7--9-----9--------------------------------|
D----------------------------------------------|
A----------------------------------------------|
E----------------------------------------------|

E----------------------------------------------|
B-8p7-8-7--------------------------------------|
G---------9---7---7---9*-----------------------|
D----------------------------------------------|
A----------------------------------------------|
E----------------------------------------------|

p - pull-off
h - hammer-on
* - let ring
Tap to rate this tab
# A B C D E F G H I J K L M N O P Q R S T U V W X Y Z