Song name
# A B C D E F G H I J K L M N O P Q R S T U V W X Y Z

Starfield - All For You tab

STARFIELD        ALL FOR YOU.

INTRO TAB BY ANTHONY DUIN.
ENJOY!!!


----------------------------------------------------------------------------|
----------------------------------------------------------------------------|
------6-----6-----6------6-------6/7------7-------9------7------6------6----|
---7-----7-----7-----7-------7--------7-------7------7------7-------7-------|
----------------------------------------------------------------------------|
----------------------------------------------------------------------------|

-----------------------------------------------------]
-----------------------------------------------------]
-------6-------6-------------------------------------]
---7-------7-------7----9---7---6---6---7---7---9----]
-----------------------------------------------------]
-----------------------------------------------------]


----------------------------------------------------------------------------|
----------------------------------------------------------------------------|
-------6------6-------6------6-------6/7------7-------9------7--7---6-------|
---7------7-------7------7-------7--------7-------7------7------------------|
----------------------------------------------------------------------------|
----------------------------------------------------------------------------|


---------------------------------------------------------------------------]
---------------------------------------------------------------------------]
-------6-------6-------6---------------------------------------------------]
---7-------7-------7-------7----9---7---6----67---6------------------------]
-------------------------------------------------------9-----7----7-----9--]
---------------------------------------------------------------------------]

Notes: this tab is garunteed at least 95-100% accurate, if you have any notation 
(though unlikely) please let me know at aduin@hotmail.com
Tap to rate this tab
# A B C D E F G H I J K L M N O P Q R S T U V W X Y Z