Guitaretab - guitar tabs
Song name
# A B C D E F G H I J K L M N O P Q R S T U V W X Y Z

Starfield - I Will Go tab


-------------------------------------------------------------------------------
			     I Will Go - Starfield
-------------------------------------------------------------------------------
Tabbed by: SWLABR

Tuning: EADGBe

Intro:

e|------------------------------6-6-6-7--------------------------10-10-10-11-|
B|---------------------------------------------------------------------------|
G|---------------------------------------------------------------------------|
D|---------------------------------------------------------------------------|
A|------6-6-6-6-6-6-6-6-6-6-6-6----------6-6-6-6-6-6-6-6-6-6-6-6-------------|
E|--14/-4-4-4-4-4-4-4-4-4-4-4-4----------4-4-4-4-4-4-4-4-4-4-4-4-------------|
[ Tab from: http://www.guitaretab.com/s/starfield/166225.html ]
e|------------------------------6-6-6-7--------------------------14-14-14-14-|
B|---------------------------------------------------------------------------|
G|---------------------------------------------------------------------------|
D|---------------------------------------------------------------------------|
A|------6-6-6-6-6-6-6-6-6-6-6-6----------6-6-6-6-6-6-6-6-6-6-6-6-------------|
E|--14/-4-4-4-4-4-4-4-4-4-4-4-4----------4-4-4-4-4-4-4-4-4-4-4-4-------------|

Verse 1:
G#m               E        F#
To the desperate eyes and reaching hands,
G#m               E        F#
To the suffering and the lame
G#m               E        F#
To the ones the world has cast aside
C#m7             B      F#
Where you want me I will be


Chorus:
        E          B
I will go, I will go,
       F#         G#m F#        E
I will go, Lord, send me to the world
        B            F#
To the lost, to the poor and hungry
      E            B
Take everything I am
     F#              G#m 
Iím clay within your hands
      C#m7       G#m       F#
I will go, I will go, send me

Verse 2:
Let me not be blind with privilege,
Give eyes to see the pain
Let the blessing youíve poured out on me
Not be spent on me in vain
Let this life be used for change

Bridge:
E         B
I want to live for you ---
F#           G#m         |
Go where you need me     2X
E         B      F#      |      
I want to follow you  ----    

E         B
I want to live for you
F#           G#m
Go where you need me
C#m7      G#m     F#
I want to follow you    

Intro (singing SEND ME!)
Related for I Will Go tab