Song name
# A B C D E F G H I J K L M N O P Q R S T U V W X Y Z

Starfield - Unashamed tab

-------------------------------------------------------------------------------
			     Unashamed - Starfield
-------------------------------------------------------------------------------
Tabbed by:worshipleader98
Email:littlemark42@yahoo.com

Tuning: Standard

this is the instrumental part between the 1st chorus and 3rd verse...im 100% sure its 
right notes

e|---------------------------------------------------------------------------|
B|---------------------------------------------------------------------------|
G|-----------14-12h14p12--10h12p10--9h10p9-----------------------------------|
D|--------------------------------------------10-----------------------------|
A|---------------------------------------------------------------------------|
E|---------------------------------------------------------------------------|


e|---------------------------------------------------------------------------|
B|---------------------------------------------------------------------------|
G|-----------14-12h14p12-10h12p10-(14)-(14)-(14)-(14)------------------------|
D|---------------------------------------------------------------------------|
A|---------------------------------------------------------------------------|
E|---------------------------------------------------------------------------|

This the solo i should say, that is during the bridge/outro of the song. Where Tim 
I Stand, at your feet"

e|---------------------------------------------------------------------------|
B|-----------------10-----10-11------10-11-13-----11-10----------------------|
G|-----------10-12-----12-------------------------------10-(10)-(10)---------|
D|---------------------------------------------------------------------------|
A|---------------------------------------------------------------------------|
E|---------------------------------------------------------------------------|

************************************

| /   slide up
| \   slide down
| h   hammer-on
| p   pull-off
| ~   vibrato
| +   harmonic
| x   Mute note
| b   Bend
| pb  Pre-bend
| br  Bend release
| pbr Pre-bend release
| brb Bend release bend

************************************
Tap to rate this tab
# A B C D E F G H I J K L M N O P Q R S T U V W X Y Z