Starfield - Hosanna tab

Hosanna (Electric)
Hillsong United

Intro
Part 1
--------------------------------------------|
--------------------------------------------|
-7/9--/7----/4----/9---/7--/12--/11---------|
--------------------------------------------|
--------------------------------------------|
--------------------------------------------|
Part 2 (2x)
------10-10-12--------------------------|
-12--------------12-10-12---------------|
----------------------------------------|
----------------------------------------|
----------------------------------------|
----------------------------------------|

Verse 1
G                       G D/F#
I see the King of Glory
Em
Coming on the clouds with fire
                Am
The whole earth shakes
                D
The whole earth shakes
G                        G D/F#
I see His love and mercy
Em
Washing over all our sin
           Am
The people sing
           D
The people sing

Chorus
G     C   D  Em
Hosanna, Hosanna
     C           Em  D
Hosanna in the highest
G     C   D  Em
Hosanna, Hosanna
   C            D  Em
Hosanna in the highest

Part 2 (1x)

Verse 2
I see a generation
Rising up to take their place
With selfless faith, selfless faith
I see a near revival
Stirring as we pray and seek
We're on our knees, on our knees

Chorus

Break

   Em               G
e|---3--3--3--3--3---7--7--7--7--7--|
B|-5--5--5--5--5---8--8--8--8--8----|
G|----------------------------------|
D|----------------------------------|
A|----------------------------------|
E|----------------------------------|

   Am                    Bm
e|----8---8---8---8---8--10--10--10--14-14-14h15p14--|
B|-10--10--10--10--10--12--12--12--------------------|
G|---------------------------------------------------|
D|---------------------------------------------------|
A|---------------------------------------------------|
E|---------------------------------------------------|

Bridge
C                          D
Heal my heart and make it clean
 G               Em
Open up eyes to things unseen
C                        D
Show me how to love like You
    Em
And love me

Chorus (2x)
Tap to rate this tab
 
# A B C D E F G H I J K L M N O P Q R S T U V W X Y Z