Song name
# A B C D E F G H I J K L M N O P Q R S T U V W X Y Z

Starfield - I Need A Father tab

I NEED A FATHER
Starfield

Capo 2nd fret

FORM: V1 – Ch – V2 – Ch – Br – Ch

INTRO: F# pad (w Elec gtr line)

listen to the song for the basic picking pattern, these 
notes are 100% accurate, but the rhythm might not be.

Line A
F#|------------------------------------------------------|
C#|------------------------------------------------------|
A |------------------------------------------------------|
E |------------------------------------------------------|
B |-7--7--7/9---9--9--9/11---11--11---11\6-6--4-4--2-2---|
F#|--0--0-----0--0--0------0---0----0-----0-0--0-0--0-0--|

Line B
F#|------------------------------------------------------|
C#|------------------------------------------------------|
A |------------------------------------------------------|
E |------------------------------------------------------|
B |-7--7--7/9---9--9--9/11---11--11---11\6-6--4-4--7-7---|
F#|--0--0-----0--0--0------0---0----0-----0-0--0-0--0-0--|


VERSE/CHORUS 1: (gtrs, pads only ‘til 3rd line)

(Elec gtr - Line A
Hold me, somebody, don’t let me be alone

Line B
Love me, stay with me, I am dying to be known

C#m7           B/D#          A    E
My heart cries out: I need a Father

      A          E     B                        A   E
Whose love will never fail me, a friend like no other

      A       E         B                  A2 …
Whose trusted arms will hold me. I need a Father


(BAND IN) 
Guitar Line A
E B/E A/E E 

VERSE 2:
E                   B/E      A/E   E 
I am wounded, but I tuck the pain away 

E                         B/E     A/E   E      
Free me, heal me, I don’t want to be afraid 

   C#m7        B/D#
My heart cries out:


CHORUS:
         A   E         A        E     B          
I need a Father whose love will never fail me

                 A2 E        A       E         B
A friend like no other whose trusted arms will hold me…


BRIDGE:  

C#m7       F#m7    B       C#m7
Here’s my heart Be tender, please

C#m7   F#m7      Bsus
Let me know Your love for me

C#m7      F#m7      B     C#m7
Here’s my heart I’m on my knees

C#m7   F#m7      Bsus   B
I will trust ‘Cuz I believe:

CHORUS:
           Ama9 ( )    A         E      B
You are my Father Your love will never fail me

                 A  E       A        E         B
A friend like no other Your trusted arms will hold me

           Ama9             Ama9
You are my Father… …
Tap to rate this tab
 
# A B C D E F G H I J K L M N O P Q R S T U V W X Y Z