Song name
# A B C D E F G H I J K L M N O P Q R S T U V W X Y Z

Starfield - Remain tab

=============================
-----Remain by Starfiled-----
=============================
tabbed by Bradley Nemitz


Solo

e------------------------------------------|
B--8~--11~---6~--9~---4~-------------------|
G----------------------------5~------------|
D------------------------------------------|
A------------------------------------------|
E------------------------------------------|


e------------------------------------------|
B--8~--11~---6~--9~---4~-------------------|
G----------------------------5~-------3~---|
D------------------------------------------|
A------------------------------------------|
E------------------------------------------|
Tap to rate this tab
 
# A B C D E F G H I J K L M N O P Q R S T U V W X Y Z