Song name
# A B C D E F G H I J K L M N O P Q R S T U V W X Y Z

Starfield - Son Of God tab

-------------------------------------------------------------------------------
			    Son of God - Starfield
-------------------------------------------------------------------------------
Tabbed by: Brad


Tuning:Standard


Guitar 1
e|--16---15---11----------16---15----11-----------16----15----11---------------|
B|------------------13----------------------13-----------------------13--------|
G|-----------------------------------------------------------------------------|
D|-----------------------------------------------------------------------------|
A|-----------------------------------------------------------------------------|
E|-----------------------------------------------------------------------------|

e|--16---15---11----------16---15---11---------------------------------------|
B|-----------------13--------------------13----------------------------------|
G|---------------------------------------------------------------------------|
D|---------------------------------------------------------------------------|
A|---------------------------------------------------------------------------|
E|---------------------------------------------------------------------------|


While this is being played, guitar 2 plays this:

e|-----------------------------------------------------------------------------|
B|---------11---13----------------------11--14--13-----------------------------|
G|------13---------------------------13----------------------------------------|
D|---13---------------------------13-------------------------------------------|
A|-----------------------------------------------------------------------------|
E|-----------------------------------------------------------------------------|

Play it along with the song a couple times and you'll get it. It's a great song!

************************************

| /   slide up
| \   slide down
| h   hammer-on
| p   pull-off
| ~   vibrato
| +   harmonic
| x   Mute note
| b   Bend
| pb  Pre-bend
| br  Bend release
| pbr Pre-bend release
| brb Bend release bend

************************************
Tap to rate this tab
 
# A B C D E F G H I J K L M N O P Q R S T U V W X Y Z