Song name
# A B C D E F G H I J K L M N O P Q R S T U V W X Y Z

Starfield - Just Surrender tab

Intro & Verse 1:

C

E||--------------------------|-----------------0-------|
B||-----1-----1-----1-----1--|-----1-----1----------1--|
G||--0-----0-----0-----0-----|--0-----0-----0-----0----|
D||--------------------------|-------------------------|
A||--------------------------|-------------------------|
E||--------------------------|-------------------------|


Em

E||--------------------------|-----------------0-------|
B||-----1-----1-----1-----1--|-----1-----1----------1--|
G||--4-----4-----4-----4-----|--4-----4-----4-----4----|
D||--------------------------|-------------------------|
A||--------------------------|-------------------------|
E||--------------------------|-------------------------|

Am

E||--------------------------|-----------------0-------|
B||-----1-----1-----1-----1--|-----1-----1----------1--|
G||--2-----2-----2-----2-----|--2-----2-----2-----2----|
D||--------------------------|-------------------------|
A||--------------------------|-------------------------|
E||--------------------------|-------------------------|

F

E||--------------------------|-----------------0-------|
B||-----1-----1-----1-----1--|-----1-----1----------1--|
G||--2-----2-----2-----2-----|--4-----4-----4-----4----|
D||--------------------------|-------------------------|
A||--------------------------|-------------------------|
E||--------------------------|-------------------------|


Pre-chorus:
I'm not quite sure how the prechorus goes because there are alot of instruments covering 
up the guitar picking. So this might not be correct.
The Chords are G and D, but it sound like they are playing this.

G                                 D

E||------------------------------|---------------------------------|
B||----1-1----1-1----1-1----1-1--|----1-1----1-1----1---1---1---1--|
G||--4------4------4------4------|--4------4------4---4---4---4---4|
D||------------------------------|---------------------------------|
A||------------------------------|---------------------------------|
E||------------------------------|---------------------------------|

Chorus: Same as Intro and Verse 1
C

E||--------------------------|-----------------0-------|
B||-----1-----1-----1-----1--|-----1-----1----------1--|
G||--0-----0-----0-----0-----|--0-----0-----0-----0----|
D||--------------------------|-------------------------|
A||--------------------------|-------------------------|
E||--------------------------|-------------------------|


Em

E||--------------------------|-----------------0-------|
B||-----1-----1-----1-----1--|-----1-----1----------1--|
G||--4-----4-----4-----4-----|--4-----4-----4-----4----|
D||--------------------------|-------------------------|
A||--------------------------|-------------------------|
E||--------------------------|-------------------------|

Am

E||--------------------------|-----------------0-------|
B||-----1-----1-----1-----1--|-----1-----1----------1--|
G||--2-----2-----2-----2-----|--2-----2-----2-----2----|
D||--------------------------|-------------------------|
A||--------------------------|-------------------------|
E||--------------------------|-------------------------|

F

E||--------------------------|-----------------0-------|
B||-----1-----1-----1-----1--|-----1-----1----------1--|
G||--2-----2-----2-----2-----|--4-----4-----4-----4----|
D||--------------------------|-------------------------|
A||--------------------------|-------------------------|
E||--------------------------|-------------------------|


Verse 2: Same as Intro and Verse 1
C

E||--------------------------|-----------------0-------|
B||-----1-----1-----1-----1--|-----1-----1----------1--|
G||--0-----0-----0-----0-----|--0-----0-----0-----0----|
D||--------------------------|-------------------------|
A||--------------------------|-------------------------|
E||--------------------------|-------------------------|


Em

E||--------------------------|-----------------0-------|
B||-----1-----1-----1-----1--|-----1-----1----------1--|
G||--4-----4-----4-----4-----|--4-----4-----4-----4----|
D||--------------------------|-------------------------|
A||--------------------------|-------------------------|
E||--------------------------|-------------------------|

Am

E||--------------------------|-----------------0-------|
B||-----1-----1-----1-----1--|-----1-----1----------1--|
G||--2-----2-----2-----2-----|--2-----2-----2-----2----|
D||--------------------------|-------------------------|
A||--------------------------|-------------------------|
E||--------------------------|-------------------------|

F

E||--------------------------|-----------------0-------|
B||-----1-----1-----1-----1--|-----1-----1----------1--|
G||--2-----2-----2-----2-----|--4-----4-----4-----4----|
D||--------------------------|-------------------------|
A||--------------------------|-------------------------|
E||--------------------------|-------------------------|


Pre-chorus:
G                                 D

E||------------------------------|---------------------------------|
B||----1-1----1-1----1-1----1-1--|----1-1----1-1----1---1---1---1--|
G||--4------4------4------4------|--4------4------4---4---4---4---4|
D||------------------------------|---------------------------------|
A||------------------------------|---------------------------------|
E||------------------------------|---------------------------------|

Chorus:
C

E||--------------------------|-----------------0-------|
B||-----1-----1-----1-----1--|-----1-----1----------1--|
G||--0-----0-----0-----0-----|--0-----0-----0-----0----|
D||--------------------------|-------------------------|
A||--------------------------|-------------------------|
E||--------------------------|-------------------------|


Em

E||--------------------------|-----------------0-------|
B||-----1-----1-----1-----1--|-----1-----1----------1--|
G||--4-----4-----4-----4-----|--4-----4-----4-----4----|
D||--------------------------|-------------------------|
A||--------------------------|-------------------------|
E||--------------------------|-------------------------|

Am

E||--------------------------|-----------------0-------|
B||-----1-----1-----1-----1--|-----1-----1----------1--|
G||--2-----2-----2-----2-----|--2-----2-----2-----2----|
D||--------------------------|-------------------------|
A||--------------------------|-------------------------|
E||--------------------------|-------------------------|

F

E||--------------------------|-----------------0-------|
B||-----1-----1-----1-----1--|-----1-----1----------1--|
G||--2-----2-----2-----2-----|--4-----4-----4-----4----|
D||--------------------------|-------------------------|
A||--------------------------|-------------------------|
E||--------------------------|-------------------------|


Bridge:

Am   C   G x2

E||-----------0-0-------------|-----------0-0------------|
B||-----1------------1-----1--|-----1------------1----1--|
G||--2-----2------2-----2-----|--0-----0------0-----0----|
D||---------------------------|--------------------------|
A||---------------------------|--------------------------|
E||---------------------------|--------------------------|

E||--------------------------|
B||-----1-----1-----1-----1--|
G||--0-----0-----0-----0-----|
D||--------------------------|
A||--------------------------|
E||--------------------------| x2

Chorus:
C

E||--------------------------|-----------------0-------|
B||-----1-----1-----1-----1--|-----1-----1----------1--|
G||--0-----0-----0-----0-----|--0-----0-----0-----0----|
D||--------------------------|-------------------------|
A||--------------------------|-------------------------|
E||--------------------------|-------------------------|


Em

E||--------------------------|-----------------0-------|
B||-----1-----1-----1-----1--|-----1-----1----------1--|
G||--4-----4-----4-----4-----|--4-----4-----4-----4----|
D||--------------------------|-------------------------|
A||--------------------------|-------------------------|
E||--------------------------|-------------------------|

Am

E||--------------------------|-----------------0-------|
B||-----1-----1-----1-----1--|-----1-----1----------1--|
G||--2-----2-----2-----2-----|--2-----2-----2-----2----|
D||--------------------------|-------------------------|
A||--------------------------|-------------------------|
E||--------------------------|-------------------------|

F

E||--------------------------|-----------------0-------|
B||-----1-----1-----1-----1--|-----1-----1----------1--|
G||--2-----2-----2-----2-----|--4-----4-----4-----4----|
D||--------------------------|-------------------------|
A||--------------------------|-------------------------|
E||--------------------------|-------------------------|

Repeat x2

Hope this was helpful!
Tap to rate this tab
# A B C D E F G H I J K L M N O P Q R S T U V W X Y Z