Song name
# A B C D E F G H I J K L M N O P Q R S T U V W X Y Z

Starfield - Hiding Place tab

These are the leads i figured out i'm pretty sure most of it is right


Tabbed by Brandon Bushnell
Tuning (EADGBE)
Note) Tab is in order with the song.

E|---------10-------------10-------------10--------------10-----|
B|--11---------8--11--------------11-----------8--11------------|
G|------10------------10-----10-------10--------------10----10--|
D|--------------------------------------------------------------|
A|--------------------------------------------------------------|
e|--------------------------------------------------------------|


E|--------------------------|
B|--11~---16~---15~---13~---|
G|--------------------------| 2x
D|--------------------------|
A|--------------------------|
e|--------------------------|


E|-------------------------6---------------------5---6---|
B|-------------------------------------------------------|
G|--10--5--7--5\3v--10--5-----7--10--5--7--5\3v----------|
D|-------------------------------------------------------|
A|-------------------------------------------------------|
e|-------------------------------------------------------|



E|---6~---8~--------------|
B|------------15~---13~---|
G|------------------------| 2x
D|------------------------|
A|------------------------|
e|------------------------|


E|-----------10----------------10--------|
B|--11------------8---11-----------------|
G|------10-----------------10------10----|
D|---------------------------------------|
A|---------------------------------------|


E|---------------------------|
B|---11~---16~---15~---13~---|
G|---------------------------| 2x
D|---------------------------|
A|---------------------------|
e|---------------------------|



E|-------------------------6---------------------5--6---|
B|------------------------------------------------------|
G|--10--5--7--5\3v--10--5-----7--10--5--7--5\3v---------| 2x
D|------------------------------------------------------|
A|------------------------------------------------------|
e|------------------------------------------------------|


E|------------------------------------------------------------------------|
B|------------------------------------------------------------------------|
G|---88888888---7777777--88888888---1010101010101010--8888888--7777777----|
D|------------------------------------------------------------------------|
A|------------------------------------------------------------------------|
e|------------------------------------------------------------------------|

this and the piece above it is one
E|--------------------|
B|---10------13-------|
G|-------10------10---| 4x
D|--------------------|
A|--------------------|
e|--------------------|



E|------------------------------------------------10-----------|
B|---------11------------11-------------11----------------10v--|
G|--8--10------7--8--10------10--8--10------7--10-----10-------| 2x
D|-------------------------------------------------------------|
A|-------------------------------------------------------------|
e|-------------------------------------------------------------|


On the 3rd time you end the song with this
E|-------------------------------------------------------------|
B|---------11-----------11-----------11--------6--10-----11~v--|
G|--8--10-----7--8--10-----10--8--10-----7--5--------10--------|
D|-------------------------------------------------------------|
A|-------------------------------------------------------------|
e|-------------------------------------------------------------|


Thats it have fun.
Tap to rate this tab
# A B C D E F G H I J K L M N O P Q R S T U V W X Y Z