Song name
# A B C D E F G H I J K L M N O P Q R S T U V W X Y Z

Starfield - Filled With Your Glory tab

These are the lead parts for this song

Tabbed by Brandon Bushnell
Tuning (EADGBE)
Note)Tab is in order with song


 Follow Rhythem In Song
E|----------------------------------|
B|----------------------------------|
G|--17---15---18---17---15---20-----| 2x
D|---x----x----x----x----x----x-----|
A|--15---13---16---15---13---18-----|
e|----------------------------------|


E|-------------------------------------------|
B|-------------------------------------------|
G|--12-13-15--------------------13-13--------|
D|-----------11-10-----------13-------13-----|
A|-----------------11--11h13-----------------|
e|-------------------------------------------|


Palm mute with alil sound
E|---------------------|
B|--99999999999999999--|
G|--88888888888888888--|
D|---------------------|
A|---------------------|
e|---------------------|
    .................


                        |these chords follow rhythem of the song
E|----------------------|-11--11--9--8--------|
B|--8888-9999-1111111---|-9---11--9--9--9v----|
G|--8888-8888-8-8-8-8---|-8---8---8------8----|
D|----------------------|---------------------| 2x
A|----------------------|---------------------|
e|----------------------|---------------------|



 Follow Rhythem In Song
E|-----------------------------------|
B|-----------------------------------|
G|---17---15---18---17---15---20-----|
D|----x----x----x----x----x----x-----| 1x
A|---15---13---16---15---13---18-----|
e|-----------------------------------|


E|-------------------------------------------|
B|-------------------------------------------|
G|--12-13-15--------------------13-13--------|
D|-----------11-10-----------13-------13-----|
A|-----------------11--11h13-----------------|
e|-------------------------------------------|


E|---------------------------------------------------------------------|
B|---9--------------------------------------------16---------------16--|
G|---8--12-13-15v--13-15-13-15-13-15-13-15--12-13------15-12-13-15-----|
D|---x-----------------------------------------------------------------|
A|--11-----------------------------------------------------------------|
e|---------------------------------------------------------------------|


Palm mute with alil sound
E|---------------------|
B|--99999999999999999--|
G|--88888888888888888--|
D|---------------------|
A|---------------------|
e|---------------------|
    .................


|these chords follow rhythem of the song
E|----------------------|-11--11--9--8--------|
B|--8888-9999-1111111---|-9---11--9--9--9v----|
G|--8888-8888-8-8-8-8---|-8---8---8------8----|
D|----------------------|---------------------| 4x
A|----------------------|---------------------|
e|----------------------|---------------------|



Follow Rhythem In Song
E|-----------------------------------|
B|-----------------------------------|
G|---17---15---18---17---15---20-----|
D|----x----x----x----x----x----x-----| 
A|---15---13---16---15---13---18-----|
e|-----------------------------------|


Well Thats it have fun.

Tap to rate this tab
# A B C D E F G H I J K L M N O P Q R S T U V W X Y Z